#1
hey im learning enters sandman on guitar and im doing it fine but theres a part that i cant get

----21--17---------21--17---------.....
--------------17----------------17--.....
---------------------------------------.....
---------------------------------------.....
---------------------------------------.....
---------------------------------------......

its kinda hard to do this so i was wondering if this is ok?


----21--17---------21--17---------.....
--------------19----------------19--.....
---------------------------------------.....
---------------------------------------.....
---------------------------------------.....
---------------------------------------......

its sounds almost exactly but i ddont know if this is ok?
#2
use one finger and bar the frets. should sound work pretty well. use your index finger for both the 17th fret notes.
#3
Don't use the second tab, it won't sound right. It'll sound cool, but it won't be Enter Sandman. Do what davis1393 said, but make sure you 'role' your index on the 17th fret so that the notes don't bleed into each other. There is no other way of playing this btw, not to my knowledge, so keep at it, its a very important technique and I promise you will use it again at some point in your guitar career.
#4
uh...the solo (fast part) is
-12-12-12-12-|---|12h15p12|---|14-14-14-|17p14---|---|19p15---|---|21p17---|--|
-15B---------|4x |--------|x3 |---------|----15--|x3 |------17|x3 |------17|x3|