#1
Ok so this is my first solo i've created, quite simple. Made a few riffs before but never anything that made me think like this

it's in D major - notice any mistakes in the key, please tell me

Really want advice, comments, constructive criticism

EDIT: Actually I have a question, as I havn't ventured into dual harmonies yet, is it possible to create a second guitar part as a harmony to this on a 20 fret guitar?


Part A

Each group of 4 notes (should be obvious which) are played twice

*********************************************************
----------------------------------------
----------------------------------------
----14-15-14------16-17-16-----18-19-18-
-12------------14-----------16----------
----------------------------------------
----------------------------------------


------------------------------------
----15-16-15-----17-18-17-----------
-12-----------14--------------------
------------------------------------
------------------------------------
------------------------------------


----13-14-13----16-17-16----17-18-17
-12----------14----------15---------
------------------------------------
------------------------------------
------------------------------------
------------------------------------
**********************************************


Tapping Part (B)
each group played 4 times
**********************************************
------------------------------------
------------------------------------
------------------------------------
-12p7h8p7--14p9h10p9--16p11h12p11---
------------------------------------
------------------------------------


------------------------------------
------------------------------------
-12p7h8p7--14p9h10p9----------------
------------------------------------
------------------------------------
------------------------------------


------------------------------------
-12p6h7p6--14p9h10p9--15p10h11p10---
------------------------------------
------------------------------------
------------------------------------
------------------------------------

**************************************************


Chord Part1 (C)
all groups of 3 repeated 4 times
all chords played 3 times (all are quavers except last open chord which is a crotchet)
*************************************************
-------------------------------------
-------12-------11-----9-----7-----5-
----12-------11------9-----7-----5---
-12-------11-------9-----7-----5-----
-------------------------------------
-------------------------------------


--------------------------------------
-----4-----2-----0--12-11-9-7-5-4-2-0-
---4-----2-----0----12-11-9-7-5-4-2-0-
-4-----2-----0------12-11-9-7-5-4-2-0-
--------------------------------------
--------------------------------------

******************************************

Chord Part2 (D)
each group played twice
******************************************
-----------------------------------
-------12----------11--------9-----
----12----12----11----11---9---9---
-12----------11----------9---------
-----------------------------------
-----------------------------------


-------------------------------------------
-----7-------5-------4-------2-------0-----
---7---7---5---5---4---4---2---2---0---0---
-7-------5-------4-------2-------0-------0-
-------------------------------------------
-------------------------------------------
Last edited by Tomo009 at Jun 21, 2008,
#2
You could have wrote the next stairway here, friendo.

Problem is you put it on ****ing MegaUpload were no one will give enough ****s to figure out HOW to download your tab, let alone download your tab.