#1
http://www.youtube.com/watch?v=ZqR_SwwByMM
(anybody deterred by the title, I'm not spamming, the title of the song is Enormous Penis )

I all I really need is chords.
I can figure out the vocal melody, but I'm horrible when it comes to figuring out chords.

As far as I can gather (from about 15 minutes playing with the melody), I think I have the first two lines, but I'm kind of still lost.
(capo on 4th fret, I think)


          C
When ever life gets you down,
          Em
Keeps you wearing a frown,

(and after that I'm completely lost, which is rather embarrasing)
Could someone figure out the chords, or better yet, could someone show me how to figure out the chords, so I don't have ask this again?

Thanks
time machine. Inadvertently, I had created a
#2
well, I hope you can figure this out without the lyrics.....

some chords:
A9: x07687
E9: xx2132


E Ab7 A Am

e|-------0------0-------0------0--------------|
B|-------------------------------0--------------|
G|---4------3------2-----------1--------------|
D|-------------------------------2--------------|
A|-------------------------------2--------------|
E|-------------------------------0--------------|

E Ab7 A Am F#7 B7

A Am7 E Dbm7 F#7 B7
e|---------------------------------------------------------------------------|
B|-----4-----5-----6-------7-----------------------------------------------|
G|---------------------------------------------------------------------------|
D|---------------------------------------------------------------------------|
A|----2-----4------5-------6----------------------------------------------|
E|---------------------------------------------------------------------------|

chorus:E B Db7 F#m7 B7 E

E B Db7 F#m7 B7

A Am E Db7 F#m7 B7 E-Eb-D-Db F#m7 B7 E

repeat chorus (2)

last chords:...F#m7 B7 E Db7 (3)

F#m7 B7 E A9 E E9.