#1
I can do these types of chords 17
x
15

But these are kinda iffy> E|----------------------------------|---------------------------|
B|-9-9-9--6-6-6--13-13-13--8-8-8-8--|-9-9-9--6-6-6--13-13-13--8-|
G|-x-x-x--x-x-x---x--x--x--x--|x-x-x-x--x-x-x---x--x--x---|
D|-x-x-x--x-x-x---x--x--x--x-x-x-x--|-x-x-x--x-x-x---x--x--x--x-|
A|-8-8-8--4-4-4--11-11-11--6-6-6-6--|-8-8-8--4-4-4--11-11-11--6-|
E|----------------------------------|---------------------------|

Whats the best way to mute the two in between.
#2
Quote by RockAddict311
I can do these types of chords 17
x
15

But these are kinda iffy> E|----------------------------------|---------------------------|
B|-9-9-9--6-6-6--13-13-13--8-8-8-8--|-9-9-9--6-6-6--13-13-13--8-|
G|-x-x-x--x-x-x---x--x--x--x--|x-x-x-x--x-x-x---x--x--x---|
D|-x-x-x--x-x-x---x--x--x--x-x-x-x--|-x-x-x--x-x-x---x--x--x--x-|
A|-8-8-8--4-4-4--11-11-11--6-6-6-6--|-8-8-8--4-4-4--11-11-11--6-|
E|----------------------------------|---------------------------|

Whats the best way to mute the two in between.


just mute them with your index finger that is also hitting the root note

Emotion = true music

Gear

Vantage 718dt-1
Epi Special II
Crate V Series 212 18w
Fuzz Factory
MXR Phase 90
#4
I'd use my index finger for the A string notes and my middle finger for the B string notes. Just make sure your index finger kinda lays over the D and G strings, muting them.
Yamaha RGX 520FZ
Squier Affinitys Strat (customized!)
Johnson 620 Player Acoustic

Boss HM3 hyper metal
Boss CH1 super chorus
Zoom G1X

Peavey Valveking Royal 8
New: Peavey JSX Mini Collosal