#1
Even bafore i started to play bass, i really like the bassline of Standing in The Dark by Platinum Blonde. if someone could tab that for me i would strongly appreciate it.
#2
The intro is just C# repeated over and over again

The main riff is


G-----------------------------------------
D-----------------------------------------
A--4---4--0----0----------2----2---------
E-------------------2----2-------------------

The chorus or whatever is


G-----------------------------------------------------------------------------
D----------------------------------------------------------------------------
A------------------------------------------0-0-0-0-0-0-0-0-2-2-2-2-2--
E-0-0-0-0-0-0-0-2-2-2-2-2-2-2-2---------------------------------------