#1
Alright this is the first riff ive ever made up (its on my profile). Its pretty short and simple. Most people who have heard it seemed to have liked it but i wanted to get some real guitarists opinions on it. I played it on an acoustic for the recording but when Im practicing with my friends i usually use an electric with slight reverb on it.

Heres the tab for it (its my first attempt at tabbing too)

|-----------------------------------------------------------------
|----------12-x-12-12-----12h14p12----------------12-x-12-12-x-12-
|-----x-x--13-x-13-13--x------------14-------x-x--11-x-11-11-x-11-
|-14-------------------------------------13-----------------------
|-----------------------------------------------------------------
|-----------------------------------------------------------------

|-----------------------------------------------------------------
|----------10-x-10-10-----10h12p10---------------10-x-10-10-x-10--
|-----x-x--11-x-11-11--x------------12-------x-x--9-x--9--9-x--9--
|-12-------------------------------------11-----------------------
|-----------------------------------------------------------------
|-----------------------------------------------------------------



Im open for suggestions. Thanks.
Gear:
Electric
Yamaha RGX520
Fender Strat HSS

Acoustic
1952 Martin and Co 00-18.
Yamaha FGX730SCA

Amp
Fender Twin Reverb
Fender Amp FM25 DSP

Pedals
Boss DS-1
#5
Thanks for the feed back guys

Edit:I just looked through the rules of R&R and i saw that thank you replies arent allowed so im sorry, i wasnt aware.
Gear:
Electric
Yamaha RGX520
Fender Strat HSS

Acoustic
1952 Martin and Co 00-18.
Yamaha FGX730SCA

Amp
Fender Twin Reverb
Fender Amp FM25 DSP

Pedals
Boss DS-1
Last edited by jxmxaxn at Jun 25, 2008,