#1
Alright.

Im learning Dazed and Confused by Led Zeppelin....

I can hear this part in the song:

e|----------------------------|------------------------|
B|----------------------------|------------------------|
G|----------------------------|------------------------|
D|----------------------------|------------------------|
A|-------10--9--8br--7-----|---5--4--3br--2------|
E|0-0-0----------------------|0----------------------|

But what is that more high pitched sound in the background? Thats guitar as well, right? It almost sounds like its crying or something.... what is it and what is the tab for it? It almost sounds like the above line except on a higher strong or something.... I dont know..... my ear isnt developed yet.

Thanks.
#2
Tuning: EBGDAE (Standard)

e|----3--3----2--2----3--3----3--3----3--3-----2--2-----3--3--------0--|
B|---3--3----3--3----5--5----3--3----3--3-----3--3-----5--5----0-1-3---|
G|--0-------2-------4-------5-------0--------2--------4----------------|(x2)
D|---------------------------------------------------------------------|
A|---------------------------------------------------------------------|
E|---------------------------------------------------------------------|

Pattern 1:

e|--3-3--xxxxxxx------------------------------------------|
B|--3-3--xxxxxxx--3-3--xx--7-7-x-7------------------------|
G|--4-4--xxxxxxx--3-3--xx--7-7-x-7------------------------|
D|--5-5--xxxxxxx--3-3--xx--7-7-x-7-(x2)-------------------|
A|--5-5--xxxxxxx--5-5--xx--5-5-x-5------------------------|
E|--3-3--xxxxxxx------------------------------------------|

Pattern 2:

e|--3-3-3-x---------------------------------------------------|
B|--3-3-3-x--7-7-x-7-7--xx--8-8--x--5-5-5-x-5-5---------------|
G|--4-4-4-x--7-7-x-7-7--xx--9-9--x--5-5-5-x-5-5---------------|
D|--5-5-5-x--5-7-x-7-7--xx--9-9--x--5-5-5-x-5-5--(x2)---------|
A|--5-5-5-x--5-5-x-5-5--xx--7-7--x--3-3-3-x-3-3---------------|
E|--3-3-3-x---------------------------------------------------|


e|-----------------------------------------------------------------|
B|--10b12r10--8--10--8-8-8------8-8-10-8-8-8-10-8------------------|


can somebody plz.............make me understand these tabs???????
#3
natural harmonics, and he messes with the tuning.
look on youtube for a black and white version of it.

also he bends 9, 7, 4, 2. its not chromatics.
#4
Quote by yogi_guitarist



can somebody plz.............make me understand these tabs???????

what dont you understand
#5
Quote by aaronob

But what is that more high pitched sound in the background? Thats guitar as well, right? It almost sounds like its crying or something....

I'm almost sure it was Robert Plant's vocals.
Same notes, only octave(s?) higher.

Quote by emad
jthm_guitarist
Warned for trolling!


Quote by metal4eva_22
Didn't you say that you had a stuffed fox that you would occasionally fuck?

Quote by Axelfox
It's not a fox,it's a wolf.
#6
Quote by jthm_guitarist
I'm almost sure it was Robert Plant's vocals.
Same notes, only octave(s?) higher.


Doesnt sound like vocals to me... definently sounds instrumental.... maybe were thinking of two different sounds. Its not that high pitched but it sounds like its basically the same as the tab I posted earlier with variation or higher notes.... do you know exactly what though?
#7
Quote by aaronob
but it sounds like its basically the same as the tab with higher notes.... do you know exactly what though?


its called an octave...