#1
I know chords and i practice those everyday...
What are some exercises i can do to increase finger strength and dexterity and speed and flexibility?
#2
chromatics,first using all 4 fingers,then using say first and second fingers,then first and third,first and fourth,afterwards the same drill just with other fingers..
do it on all 6 strings,ascending and descending
#4
then keep on doing that.. play lots of legatos also.. this will build your fingers strength
#5
These are good for helping build dexterity. just move them around the fret board.
You start out with your index on 1st fret middle on 2nd ring on 3rd and pink on 4th fret
then move your middle finger to the G string your 3rd to the B string. then put your 1st finger on the 4th fret then your pink on the 1st fret.

e|1--1--4---4----------
B|2--3--3---2----------
G|3--2--2---3----------
D|4--4--1---1----------
A|-----------------------
E|-----------------------

e|-----------------------
B|-----------------------
G|1--1--4---4----------
D|2--3--3---2----------
A|3--2--2---3----------
E|4--4--1---1----------

I think this video can explain it better then i can type it its the 1st one not the diminished chords.
Last edited by zimpy at Jun 25, 2008,