#1
Hello, I was wondering if anyone could tab the gypsy meets the boy, by W.A.S.P? I have looked for this tab for ages, and I can't figure it put myself. I saw someone on youtube play it, but the noob just wont answer my message

So please, I beg you to help me
#2
You made me go into E FLAT TUNING!!! . Anyway I used this youtube video:
http://www.youtube.com/watch?v=JzN62Sa8CCY
This is what I got from it:

From 0 to 30 seconds he plays this over and over again:


|--------------------------------|
|----------3---------------------|
|----4-------2-------------------|
|--4---4-------------2--------0--|
|2-------2-----2---2------2-5---2|
|----------------0-----3~--------|


Then he goes on to play this until 47 seconds:

|-------------------------------|
|-------------------------------|
|----4-------2--------------3---|
|--4---4---2---2-----0~---4—--4-|
|2-------0---------2------------|
|----------------3------2-------|

The he switches between that riff^^ and these chords:

G, Em (minor) , F#


And that’s all I am willing to tab for now. Let me know what you think.
#3
Sry to be a noob, but how do I tune my guitar to E flat? :P and are you sure about the tuning, because I thought WASP always used to tune their guitar half a step down

EDIT: Forgive, I just found out that e flat IS half a step down
Last edited by DanielTA at Jul 3, 2008,
#5
If you have a tuner press the 'b' button. If you don't it's obviously a bit more complicated.
Quote by Mia (Pulp Fiction)
Why do we feel it's necessary to yak about bullsh*t in order to be comfortable?

That's when you know you found somebody special. When you can just shut the f*ck up for a minute, and comfortably share silence.

RateYourMusic
#6
Yeah I know how to tune my guitar down and such, I jsut didnt know that e flat was the same as half step down