#1
Some idiot decided to post a tab without a legend....
Is there a universal tab legend?

solo:

part B----------------------------------------------------------------------|
----------------------------------------------------------------------------
----------------------------------------------------------------------------
----------------------------------------------------------------------------
----------------------------------------------------------------------------
----------------------------------------------------------------------------
--10\--0--2-2>(3)-2vvvvvv-----0--2-2>(3)-2vvvvvv-----0-0-2-2>(3)-2vvvvvvv---

play part B 8 times


-----------------------------------------------------------------------------
-3>(5)=======(5)vvvvvvvvvvvvv(5)=====>3--3>(5)==(5)vvvvvvvvvvvvvvv(5)====>3--
-----------------------------------------------------------------------------
-----------------------------------------------------------------------------
-----------------------------------------------------------------------------
-----------------------------------------------------------------------------

-----------------------------------------------------------------------------
-3>(5)vvvvvvvvvvvvvvvvvvvv>(4)>(5)>===(4)>(5)>===(4)>(5)------3>(5)vvvvvvvv--
-----------------------------------------------------------------------------
-----------------------------------------------------------------------------
-----------------------------------------------------------------------------
-----------------------------------------------------------------------------

-------------------------------------------------------------------------------
--3/7vvvvvvvvvv--5-7-7>(8)>7vvvvvvvvv---5-7-7>(8)>7vvvvvvvv---5-7-7>(8)>7vvvv--
-------------------------------------------------------------------------------
-------------------------------------------------------------------------------
-------------------------------------------------------------------------------
-------------------------------------------------------------------------------

---------------5--7-5-7--7>(8)vvvvvvvvvv(8)==>7>(8)--7>(8)vvvvvvvv-7---
--5vvvvvv-7-8----------------------------------------------------------
-----------------------------------------------------------------------
-----------------------------------------------------------------------
-----------------------------------------------------------------------
-----------------------------------------------------------------------


--7>(8)vvvvvvv(8)===>7--7>(8)vvvvvvvvv----------12-----------------------
----------------------------------------15>(17)-----15>(17)vvvvvvv>(16)--
-------------------------------------------------------------------------
-------------------------------------------------------------------------
-------------------------------------------------------------------------
-------------------------------------------------------------------------

------------12---15-----------12--15-------------------------
---15>(17)-----------15>(17)----------15>(17)vvvvvvvvvvvvvv--
-------------------------------------------------------------
-------------------------------------------------------------
-------------------------------------------------------------
-------------------------------------------------------------

----------------------------------12------------------------------------
--15>(17)======>15>12----------12-----15>(17)=====>(16)>(17)=======>15--
-----------------------14>(16)------------------------------------------
------------------------------------------------------------------------
------------------------------------------------------------------------
------------------------------------------------------------------------

----------14-15/17-17/19--17--19--19>(20)========(20)>19---19>(20)-17>19--
--15>(17)-----------------------------------------------------------------
--------------------------------------------------------------------------
--------------------------------------------------------------------------
--------------------------------------------------------------------------
--------------------------------------------------------------------------
v-- slow dive w/ bar
--19>17--20--19>(20)==>19--19>(20)==========(20)==>19>17--19--------------
--------------------------------------------------------------------------
--------------------------------------------------------------------------
--------------------------------------------------------------------------
--------------------------------------------------------------------------
--------------------------------------------------------------------------


What do the v's mean adn why are some notes in () and what are the equal signs for and what are > for?
#2
Hey you by pink floyd eh?

I think v is either vibrato or let ring.

the > is bend

EDIT: it says slow dive with whammy bar for v

() is usually used as a ghost note.

= is gradually unbend?

I think you should look at a different tab.
Last edited by beadhangingOne at Jun 26, 2008,