#2
----------------12-----------------------------------------|------------------------------------
-----------12-----15p12------------------------------------------|----------------------------
--14b16-------------------15p14p12------14---12---14b16--|--------------------------
---------------------------------------------------------------------|---------------------------
---------------------------------------------------------------------|---------------------------
---------------------------------------------------------------------|---------------------------


----------------------------------------------|----------12---------------15--------------------
----3-----------------------------------------|----/12------15b--15b--------15b-------------
-/4---4/2p0-2p0---------------------------|---------------------------------------------------
----------------------2p0--2p0-------------|---------------------------------------------------
------------------------------------2p0------|---------------------------------------------------
------------------------------------------0---|---------------------------------------------------

-----------------------------------------|-------------19b21--19-18-17----------------------
--17--20b24--17------20--17------|--------17--------------------------20p17--20--17--
------------------------18--------------|-------------------------------------------------------------
-----------------------------------------|-------------------------------------------------------
-----------------------------------------|-------------------------------------------------------
-----------------------------------------|-------------------------------------------------------


------------------------------------------------19---------------------------------------------
---17--19b19.5--19b20--19b20-19b21------17----------------------------------------
------------------------------------------------------------------------------------------------
------------------------------------------------------------------------------------------------
------------------------------------------------------------------------------------------------


Thats how i play it. I figured it out by ear, so it might not be perfect, but it sounds close to me.


EDIT: Ahh crap.. sorry it got all messed up

sorry i wrote it all wrong
"I wanna see movies of my dreams"
Last edited by guitarplaya322 at Jun 26, 2008,