#1
i really want to know how to play this song, sounds really easy, but cant seem to figure out the tabs can anybody help, the song is: From A Whim- sleeping aids and serenades.

since you probably need to listen to it haha go to the link:

http://www.mytuneslive.com/song.php?sid=89198&song=Sleeping_Aids_and_Serenades

Thanks for any help, i would really really appreciate it and im sure others will also!!

Ill give the chart, since its the least i can do!
Thanks!

e-----------------|
b-----------------|
g-----------------|
d-----------------|
a-----------------|
e-----------------|
#3
i figured it out last night
and tabbed it out today.

i sent it to UG, and now it's processing.

but here it is so you don't have to wait:

Title: Sleeping Aids and Serenades
Artist: From A Whim (myspace.com/fromawhim)
Tabbed By: mentalpplrock
Tuning: (high to low) eB-Bb-Gb-Db-Gb-Db

Figured this out by ear. It has weird tuning, but it's still an amazing song.

myspace.com/fromawhim

Verse:
"Lying awake, in my bed..."/"Sleeping aids and serenades fall on me like..."/"Hand in hand, eye to eye..."/"Cause I could be him..."

eb|-----------------------------------------------|
Bb|-----------------------------------------------|
Gb|------3--0--------3--1-------3--1--------------|
Db|---1-----------1-----------1-------5--7--5--1--|
Gb|------------------------1----------------------|
Db|-1----------1----------------------------------|

Chorus:
"You were right, and I was wrong..."

Guitar 1:

eb|-------------------------------------------------|
Bb|----9-----9-----8-----8-----6-----6-----9--8--6--|
Gb|-8-----8-----8-----8-----8-----8-----8-----------|
Db|-------------------------------------------------|
Gb|-------------------------------------------------|
Db|-------------------------------------------------|

Guitar 2:

eb|-------------------------------------------------|
Bb|-------------------------------------------------|
Gb|-------5-----------1-----------8-----------3-----|
Db|----5-----5-----1-----1-----8-----8-----3-----3--|
Gb|-5-----------1-----------8-----------3-----------|
Db|-------------------------------------------------|

Bridge:
"Cause I could be him..."

eb|-------------------------------------------------------------------|
Bb|-------------------------------------------------------------------|
Gb|-5-5--5--5-5-5--5--1-1--1--1-1-1--1--8-8--8--8-8-8--8--3-3--3-3-3--|
Db|-5-5--5--5-5-5--5--1-1--1--1-1-1--1--8-8--8--8-8-8--8--3-3--3-3-3--|
Gb|-5-5--5--5-5-5--5--1-1--1--1-1-1--1--8-8--8--8-8-8--8--3-3--3-3-3--|
Db|-------------------------------------------------------------------|
pm . . . . . . . . . . . . . . . . .

Pre Chorus/Post Bridge

eb-------------------------------------------------------------------------------------------------|
Bb-------------------------------------------------------------------------------------------------|
Gb-5-5--5--5-5-5--5--1-1--1--1-1-1--1--1-1-1--1--1-1-1--1--3-3-3--3--3-3-3--3--3-3-3--3--3-3-3--3--|
Db-5-5--5--5-5-5--5--1-1--1--1-1-1--1--1-1-1--1--1-1-1--1--3-3-3--3--3-3-3--3--3-3-3--3--3-3-3--3--|
Gb-5-5--5--5-5-5--5--1-1--1--1-1-1--1--1-1-1--1--1-1-1--1--3-3-3--3--3-3-3--3--3-3-3--3--3-3-3--3--|
Db-------------------------------------------------------------------------------------------------|
pm . . . . . . . . . . . . . . . . . . . . . . . . . . . .