#1
I am looking for a good version of the Cream version of Crossroads. I looked on Ultimate Guitar, but they all have three or four stars, so I am not sure if they are right. Can anyone provide me with the right ones?
#3
pretty sure the Clapton and Cream version are the same
I play guitar.
#4
Robert Johnson wrote the song, so I didn't want his version...I wanted the Clapton/Cream version.
#5
so look under eric clapton or cream and download powertab or guitar pro if those tabs have the highest stars
I play guitar.
#6
the bass transcription our band plays goes like this:

G--------------------------------------------------
D--75-7-5--7-5--------------------------------
A--------------------7----------------------------
E-------------------------------------------------- x 4

G--75-7-5-7-5-------------------------------------------
D------------------7--5-----------------------------------
A-------------------------7-5------------------------------
E----------------------------------------------------------

G-------------------------------------------------------------
D--7-5-7-5--7-5---------7-5-7-5-7-5--------------------
A--------------------7---------------------7---7-7-----5-5-
E-----------------------------------------------------7------5

G--------------------------------------------------------
D--75-7-5--------7------------------------------
A-------------7-5----------------------------------
E--------------------------------------------------

well it works for us. Good luck anyway