#1
Its a song called "You should have killed me when you had the chance" by the band A Day To Remember.

If you could just tab out the into, that would be ok.

thanks to anyone,
A weekend wasted isn't a wasted weekend.
#2

e------------------------------------
B------------------------------------
G-------------8--------------8------
D-------------8--------------8------
A------------10-------------10-----
E-8-8-8-8-------8-8-8-8----------



e------------------------------------
B------------------------------------
G-----------------------------------
D------------8--------------8------
A------------6--------------6------
E-4-4-4-4-------4-4-4-4---------




e------------------------------------
B------------------------------------
G-------------8--------------8------
D-------------8--------------8------
A------------10-------------10-----
E-8-8-8-8-------8-8-8-8----------



e------------------------------------
B------------------------------------
G-----------------------------------
D------------8----------8----
A------------6----------8----
E-4-4-4-4-------6-6-6-6-6---



I think the song is in drop C, so you will have to play everything 4 frets higher. Sry, I didn't notice till now lol.