#1
Now I'm passing it on what I've learned.

kudos if you know what it's from


e|----------7--6-----6----------------------------------------------|---------|
B|--7----9--------9-----7-----------7--6--9-------7--6--7--9---|---------|
G|-------------------------6---6h8-----------6h8-----------------|--repeat-|
D|--------------------------------------------------------------------|---2x----|
A|---------------------------------------------------------------------|---------|
E|---------------------------------------------------------------------|---------|

immediately after the 2nd time...

e|-----9--7--12---9--7---------7--------------------------------------7----------|
B|-10-------------------10--9-----10--9--5--7--5h7--10--10--9-----10--9--7-|
G|--------------------------------------------------------------------------------------|
D|--------------------------------------------------------------------------------------|
A|--------------------------------------------------------------------------------------|
E|---------------------------------------------------------------------------------------|
Nice beaver.


(. Y .) (. Y .)
Last edited by Maidenfan066 at Jun 28, 2008,
#8
maiden?
Quote by Dillona
NME: OMFG DEY HAZ TIGHT JEENZ N MESSY HAIRZ!

LETS COVER THEM IN OUR MAGAZINE FOR THE NEXT THREE MONTHS! .



Metallica 08.07.07
25.03.09
#9
I put this in guitar pro and did all quavers and semi quavers for the hammer ons, I've heard the tune somewhere before...

It seems like a popular song from memory, sorry can't identify it
Quote by Bartleby
i tune to drop-Z and string my guitar with barbed wire.

Quote by UncleCthulhu
we r all rlaeted bcuz teh bibel sez so we r al innbreads lolo


Prime Minister of Puppets of The Australia FTW Club

One of The 9 Winners of the Official 5th MOD Contest
Last edited by Dimster Ds at Jun 28, 2008,
#10
e|----------7--6-----6----------------------------------------------|---------|
B|--7----9--------9-----7-----------7--6--9-------7--6--7--9---|---------|
G|-------------------------6---6h8-----------6h8-----------------|--repeat-|
D|--------------------------------------------------------------------|---2x----|
A|---------------------------------------------------------------------|---------|
E|---------------------------------------------------------------------|---------|

immediately after the 2nd time...

e|-----9--7--12---9--7---------7--------------------------------------7----------|
B|-10-------------------10--9-----10--9--5--7--5h7--10--10--9-----10--9--7-|
G|--------------------------------------------------------------------------------------|
D|--------------------------------------------------------------------------------------|
A|--------------------------------------------------------------------------------------|
E|---------------------------------------------------------------------------------------|


Maybe will help?

And yes, tab forum.
#12
Reminds me of No Quarter for some reason...?

Quote by emad
jthm_guitarist
Warned for trolling!


Quote by metal4eva_22
Didn't you say that you had a stuffed fox that you would occasionally fuck?

Quote by Axelfox
It's not a fox,it's a wolf.
#16
Its the Traverse Town song from Kingdom Hearts!

I got a huge urge to listen to it for some reason and then I decided to learn it on guitar.
Nice beaver.


(. Y .) (. Y .)
#17
Quote by Maidenfan066
Its the Traverse Town song from Kingdom Hearts!

I got a huge urge to listen to it for some reason and then I decided to learn it on guitar.

YAYAYAAAAAA
#18
Quote by Maidenfan066
Its the Traverse Town song from Kingdom Hearts!

I got a huge urge to listen to it for some reason and then I decided to learn it on guitar.

That is so awesome! the worst thing that ive gone through when i sold my ps2 was the Kingdom Hearts withdrawl, those games are the SH*T
_b l/ink youreyes /1 for yes 2 fo_r n o