#1
Hi
Here's a link to a riff Jimmy Page plays in the live TSRTS version of Whole Lotta love-
http://www.filefreak.com/ppublic/28843/LedZep-%20wholelottalovelive.mp3.
Please, if anyone can tab it/GP it (even better), or just try to describe me how to play it, it'll be great, thanks
ॐॐॐॐॐॐॐॐॐॐॐॐॐॐॐॐॐॐॐॐॐ
Quote by dannyisokay
It's our little online utopia where we smoke with folks from the far corners of the world and say things like "I'm high, heheehehe."

Quote by Ed Hunter

Thoughts about new naked airport scanner?

^
Quote by nightraven
brb applying for job at airport

#2
Quote by nutmeg_trippin'
Hi
Here's a link to a riff Jimmy Page plays in the live TSRTS version of Whole Lotta love-
http://www.filefreak.com/ppublic/28843/LedZep-%20wholelottalovelive.mp3.
Please, if anyone can tab it/GP it (even better), or just try to describe me how to play it, it'll be great, thanks


Please, it should be very easy to tab (somehow I can't manage to but I've never seriously tabbed a song).
Thanks!
ॐॐॐॐॐॐॐॐॐॐॐॐॐॐॐॐॐॐॐॐॐ
Quote by dannyisokay
It's our little online utopia where we smoke with folks from the far corners of the world and say things like "I'm high, heheehehe."

Quote by Ed Hunter

Thoughts about new naked airport scanner?

^
Quote by nightraven
brb applying for job at airport

#3
I can't hear all the notes cuz of the distortion, but from what I can tell it's something along the lines of:



e----------------------------------------------------------------
B----------------------------------------------------------------
G-----------------------------------2--2--2--2--2--1---1-------
D--2------4--x--5----4---x---5------2--2--2--2--2--2---2---2--
A--0---0--0--x--0--0-0---x---0-------------------------2---2--
E------------------------------------------------------0---0--


e----------------------------------------------------------------------
B--------------------------------------------------3--x-------------
G--------------------------------------------------2--x---2--x--------
D--2--2--2--2--4--4--4--4--5--5--5--5--4--4--4--4--2--x---2--x----2----
A--0--0--0--0--0--0--0--0--0--0--0--0--0--0--0--0-----------------2----
E--------------------------------------------------------------0--0----

e---------------------------------------
B--2--2--x--3--5--x-3--x-2---3---------
G--2--2--x--2--2--x-2--x-2---2--------
D--2--2--x--2--2--x-2--x-2---0--2------
A-------------------------------0----2--
E------------------------------------0--

#4
Thanks man, finally got that reply.
cheers
ॐॐॐॐॐॐॐॐॐॐॐॐॐॐॐॐॐॐॐॐॐ
Quote by dannyisokay
It's our little online utopia where we smoke with folks from the far corners of the world and say things like "I'm high, heheehehe."

Quote by Ed Hunter

Thoughts about new naked airport scanner?

^
Quote by nightraven
brb applying for job at airport