#1
can someone write a sweep that goes to this, i cant manage to write one that sounds correct.

its basic 4/4
drop c tuning
175bpm
preferably 8th note triplets

|------------------|----------------------------|--------
|------------------|----------------------------|--------
|------------------|----------------------------|--------
|------6----------|-------6------------6------|-------------
|------3----------|-------1------------1------|------------
|------3----------|-------1------------0------|-------------
Quote by Deliriumbassist
that's not a drink, that's just coke with random crap floating in it
#2
----------------------------------12-------------------------------------------------
--------------------------10-----------13----------------------------------------------
---------------------9-----------------------15---------------------------------------
-------------7------------------------------------16----------------------------------
-------6-----------------------------------------------17-----------------------------
3-----------------------------------------------------------18------------------------


try this
THE KREATOR OF THE ALL METAL AND KERRY KING GROUP PM ME TO JOIN
Proud BLACK 13 Owner
RIP Charles Michael "Chuck" Schuldiner THE FATHER OF DEATH METAL
GOD HATES US ALL-SLAYER
#4
Quote by vamprocker
----------------------------------12-------------------------------------------------
--------------------------10-----------13----------------------------------------------
---------------------9-----------------------15---------------------------------------
-------------7------------------------------------16----------------------------------
-------6-----------------------------------------------17-----------------------------
3-----------------------------------------------------------18------------------------


try this


wow....
Quote by pwninator123
EPIC LOLZ FROM THE LEFTY!!!!!!


Quote by death.prog
Ugh...

When I brought up this page, so much fail dumped out of my computer screen and all over my hands, severely damaging my ability as a musician.
#5
you need to be able to stretch your fingers across 5 frets?

and too vamprocker, doing that makes my fingers bleed.
Quote by Deliriumbassist
that's not a drink, that's just coke with random crap floating in it
#6
Quote by displaca_beast
can someone write a sweep that goes to this, i cant manage to write one that sounds correct.

its basic 4/4
drop c tuning
175bpm
preferably 8th note triplets

|------------------|----------------------------|--------
|------------------|----------------------------|--------
|------------------|----------------------------|--------
|------6----------|-------6------------6------|-------------
|------3----------|-------1------------1------|------------
|------3----------|-------1------------0------|-------------


wtf? those last two chords are impossible to play! for me anyways...
Traynor YCV50 Blue
epi les paul w/ SD Alnico II pros
Dunlop Slash Wah
EH Deluxe Memory Boy
Moen Jimi Vibe
Danelectro Cool Cat Fuzz
Zvex Vexter Fuzz Factory
VHT 2x12 w/ V30's
#7
its just a big stretch you godzilla breath.

can anyone help me?
Quote by Deliriumbassist
that's not a drink, that's just coke with random crap floating in it