#1
Could someone tab this for me?
I've been dying to play this song but can't seem to figure it out.
Here's a close-up video of Peter playing the song for some lucky peeps.
Am I Only

thanks!
#2
detune 5th and 3rd strings: EAbDEBE

this progression is repeated many times..
E|----0------------0------------0-----------------|
B|----0------------0------------0-----------------|
E|----0------------0------------0-----------------|
D|----9------------2------------1-----------------|
Ab|---8------------3-----------0------------------|
E|----0------------0------------0------------------|

and somewhere along the way comes this:
e|----0-------0--------0-----------------------------------|
B|----0-------0--------0-----------------------------------|
G|----0-------8--------11---------------------------------| (4)
D|----9-------10------13----------------------------------|
A|----8-------0--------0-------------------------------------|
E|----0------------------------------------------------------|

this second progression is heard almost at the end of the song..

on the record he finishes the song with the first progression..

on the video..
e|-----0--------0--------0--------------------|
B|-----0--------0--------0--------------------|
G|-----0--------8--------0--------------------| (4)
D|-----9--------10------9--------------------|
A|-----8--------0--------8--------------------|
E|-----0-----------------0---------------------|
Last edited by crmrz at Jun 30, 2008,