#1
I really need a challenging solo to my song. Here's the tab. Can anyone write a solo to it??? I really need one. It is a PUNK ROCK song! Plz write a challenging solo to it

Tuning: Standard

INTRO
Gtr. 1,2
e|----------------------------------------------------------------------|
B|----------------------------------------------------------------------|
G|------------------repeat-2x-------------------------------------------|
D|-4------2-----7-------------------------------------------------------|
A|-4(6x)-2(6x)7(6x)---------------------------------------------------|
E|-2------0-----5-------------------------------------------------------|
Verses
e|----------------------------------------------------------------------|
B|-----------------------repeat--4X-------------------------------------|
G|----------------------------------------------------------------------|
D|-9-----5------2------4------end-on-4-------------------------------|
A|-9(7x)5(7X)-2(7x)-4(7X)-----------4(7x)---------------------------|
E|-7-----3------0------2----------------2-------------------------------|
pm---------------------------

CHORUS
e|----------------------------------------------------------------------|
B|------------------------------repeat-6x-------------------------------|
G|----------------------------------------------------------------------|
D|-7------2-------6------7----------------------------------------------|
A|-7(6x)-2(6x)-6(4x)7(4x)------------------------------------------|
E|-5------0-------4------5----------------------------------------------|
#3
No.


Do it yourself and if you can't then you are worthless in that band and I would kick your ass out if I was them.

Using other people's solo work for a song = never play guitar AGAIN.


That doesn't apply to you if you are doing a cover.
#4
First of all, punk rock songs don't usually need challenging solos, but that is totally up to you.
Secondly, wouldn't it be easier to write your own solo, because then you would have written a song that is at your skill level, not some potential Yngwie-level shredder's skill level.
Third, pretty sure this is the wrong forum, not a biggy though because I'm not sure.
#5
Make a recording and I might give it a go for a laugh
Quote by Pookie6
Yngwi3, You win this whole monstrosity of a thread.

Quote by uk.mace
For the best tingle, use Original Source mint. That shit feels amazing on your balls.


Godfather of The Diezel Mafia
#6
It's music dude, an expression of what you feel. Don't let others write their feelings into your song.

Through in a smooth pump up the crowd melody and some octave riffs is some quick and easy advice of what I'd do in your position.
Quote by soccermom
The only epic thing about the bass forum is Pete Wentz penis. Its Epic. Epic penis.
BASS, MT, AND PIT JUNKIE