#1
If someone could tab that song for bass it would be greatly appreciated. i cant find it anywhere on the internet
#2
Hey, I have a 4 string Bass and I think the intro is the A string 4th fret (C#) 4 beats

Main riff(verse) is A string 4 4 0 0 then E string 2 2 back to A string 2 2

Sorry haven't figured out how to draw strings yet lol .

Chorus is E string 00000000 2222222 55555555 back to A string 222

Song ends on A string 4 2 4

Could be wrong but it sounds close, hope this helps
#3
Intro:
G----------------------------------------------------
D-----------------------------------------------------
A---4-4-4-4-4-4-4-4-4-4-4-4-4-4-4-4----------
E-----------------------------------------------------

Verse:
G------------------------------
D-------------------------------
A--2-4--4-0----0---------------2--
E---------------------2--------2----

Run up: (maybe you're running hard...)
G-----------------------------------------------------------------------
D-----------------------------------------------------------------------
A---------------------------------------------0--0-0-0-0-0-0--2-2-2
E-0--0-0-0-0-0-0---2--2-2-2-2-2-2-2----------------------------

Bridge at 1.57 in
G------------------------------------------------------------------
D---------------------------------4-4-4-4-4--6-6-6-6-6-4-6
A---4-4-4-4-4----0-0-0-0-0------------------------------------
E-------------------------------------------------------------------
Last edited by WibbleWobble at Aug 24, 2014,