Page 1 of 9
#1
this game could be fun if it doesnt fail..

anyway guess the song name from the riffs posted in tab form,
writing the tuning is optional.

ill start easy


tuned down half a step

|-------------------15-----14----|
|-----15--------------------------|
|-----------14-12----14-----14|
|-12------------------------------|
|----------------------------------|
|----------------------------------|


everyone must know this..
try to quote the tab (just the tab) so people would know which one is guessed already


to put tabs put it on code form using
  *tab*  
without the spaces in between
I see you're not using the UG black theme



Originally posted by GOD
akm_202, i now announce you, king of awesome. You may bow down to me.
Last edited by akm_202 at Aug 24, 2008,
#2
Quote by akm_202


tuned down half a step

|-------------------15-----14----|
|-----15--------------------------|
|-----------14-12----14-----14|
|-12------------------------------|
|----------------------------------|
|----------------------------------|




Sweet Child o' Mine.
#3
Quote by akm_202


|-------------------15-----14----|
|-----15--------------------------|
|-----------14-12----14-----14|
|-12------------------------------|
|----------------------------------|
|----------------------------------|




Sweet Child O' Mine
#4
both are correct, now post yours
I see you're not using the UG black theme



Originally posted by GOD
akm_202, i now announce you, king of awesome. You may bow down to me.
#5
A|-00-5-0-7-0-8-0-10-0-8-0-7h8p7-----
D|-00--------------------------------------10--

drop D

Didnt do the whole riff

Epiphone Les Paul Standard
Coming soon: Egnater Tweaker


#6
good idea for a thread. im curious to see how many actually post recognizable riffs though
just get a reality tv show and then u can make millions being a **** up

MTV Sucks

Quote by hazzmatazz
You think you need help and you don't watch it everyday?

Oh man I'm well and truely on the point of no return then


MY COUSIN IS HOT
#7
|-9-8-7h8p7-6-5-----------------------------------------------------|
|---------------8-7-8---9-8-7h8p7-6-5---------7-5-5-4-5-7-5-5-4-5---|
|-------------------------------------8-7-8-------------------------|
|-------------------------------------------------------------------|
|-------------------------------------------------------------------|
|-------------------------------------------------------------------|

|-----------------6-7-8-9-8-7---------------------------------------|
|---------6-7-8-9---------------------------------------------------|
|-6-7-8-9-----------------------------------------------------------|
|-------------------------------------------------------------------|
|-------------------------------------------------------------------|
|-------------------------------------------------------------------|


Standard tuning
"Kids in the backseat cause accidents, accidents in the back cause kids."

"Secrets are like herpes, if you have 'em you might as well spread 'em."
#8
Quote by gtr_101
A|-00-5-0-7-0-8-0-10-0-8-0-7h8p7-----
D|-00--------------------------------------10--

drop D

Didnt do the whole riff


Unholy Confessions
Quote by Carmel
You are a redeeming feature for the UG Swedish population.


All-riiight.
#9
Quote by gtr_101
A|-00-5-0-7-0-8-0-10-0-8-0-7h8p7-----
D|-00--------------------------------------10--

drop D

Didnt do the whole riff

Unholy Confessions. oh damn, beaten
Quote by IwannaBeSadated

I would have any sort of sex with any sort of animal.

#11
Quote by gtr_101
A|-00-5-0-7-0-8-0-10-0-8-0-7h8p7-----
D|-00--------------------------------------10--

drop D

Didnt do the whole riff

Unholy Confessions - A7X

I'll look for one later.
Quote by LPDave
and my mom then told me to masturbate more.

Quote by Toastbot

Big burly men grunting without shirts on pretty much summed up my childhood.

Quote by The Leader
Has anyone really been far even as decided to use even go want to do more look like?
#12
Quote by gtr_101
A|-00-5-0-7-0-8-0-10-0-8-0-7h8p7-----
D|-00--------------------------------------10--

drop D

Didnt do the whole riff


i think thats trivium or something similar. i recognise it but i'm not sure who or what song it is
Quote by Fassa Albrecht
Did I ever tell you how much I love you?

[quote="'[x"]Huffy[x]']My father once said to me "Son, masturbation can stunt your growth and make you blind".

I said "I'm over here, shorty".
#13
lol at the a7x repeats. there is a delete message option, ya know.
"And after all of this, I am amazed...

...that I am cursed far more than I am praised."
#14
Quote by devildriver658
|-9-8-7h8p7-6-5-----------------------------------------------------|
|---------------8-7-8---9-8-7h8p7-6-5---------7-5-5-4-5-7-5-5-4-5---|
|-------------------------------------8-7-8-------------------------|
|-------------------------------------------------------------------|
|-------------------------------------------------------------------|
|-------------------------------------------------------------------|

|-----------------6-7-8-9-8-7---------------------------------------|
|---------6-7-8-9---------------------------------------------------|
|-6-7-8-9-----------------------------------------------------------|
|-------------------------------------------------------------------|
|-------------------------------------------------------------------|
|-------------------------------------------------------------------|


Standard tuning

Universal Mind?
#15
Quote by devildriver658
|-9-8-7h8p7-6-5-----------------------------------------------------|
|---------------8-7-8---9-8-7h8p7-6-5---------7-5-5-4-5-7-5-5-4-5---|
|-------------------------------------8-7-8-------------------------|
|-------------------------------------------------------------------|
|-------------------------------------------------------------------|
|-------------------------------------------------------------------|

|-----------------6-7-8-9-8-7---------------------------------------|
|---------6-7-8-9---------------------------------------------------|
|-6-7-8-9-----------------------------------------------------------|
|-------------------------------------------------------------------|
|-------------------------------------------------------------------|
|-------------------------------------------------------------------|


Standard tuning


Lol isn't that that circus song?
Quote by Carmel
You are a redeeming feature for the UG Swedish population.


All-riiight.
#16
Quote by devildriver658
|-9-8-7h8p7-6-5-----------------------------------------------------|
|---------------8-7-8---9-8-7h8p7-6-5---------7-5-5-4-5-7-5-5-4-5---|
|-------------------------------------8-7-8-------------------------|
|-------------------------------------------------------------------|
|-------------------------------------------------------------------|
|-------------------------------------------------------------------|

|-----------------6-7-8-9-8-7---------------------------------------|
|---------6-7-8-9---------------------------------------------------|
|-6-7-8-9-----------------------------------------------------------|
|-------------------------------------------------------------------|
|-------------------------------------------------------------------|
|-------------------------------------------------------------------|


Standard tuning


flight of the bumblebee played wrong
#17
E-----------------------------------
D--5-5--5-5----2-2-0-0---0-----
G--7-7--5-5----4-4-2-2---2-----
B--7-7----------4-4-2-2---2-----
A-----------------------------------
e------------------------------------

/thread
#18
e|-------------------------------------------------------
B|----------------------7-8-7----------------------------7-7-8-7---7---7
G|----6-----6-7--6-7-9-------9-7-6---6-7---6-7-9-6-7-9---------10-10--7
D|8-9---8-9----9--------------------9-----9------------------------------7
A|--------------------------------------------------------------------------9


not all of it but you should be able to get it
Quote by Fassa Albrecht
Did I ever tell you how much I love you?

[quote="'[x"]Huffy[x]']My father once said to me "Son, masturbation can stunt your growth and make you blind".

I said "I'm over here, shorty".
#19
Quote by F'ingguitarnoob
flight of the bumblebee played wrong


Nope
"Kids in the backseat cause accidents, accidents in the back cause kids."

"Secrets are like herpes, if you have 'em you might as well spread 'em."
#20

E||--------------------||-----------------------------|
B||--------------------||-----------------------------|
G||--------------------||*----------------------------|
D||---------------3----||*--2-------------------3--2--|
A||---------------3----||---2----2--2--2--2--2--3--2--|
E||---------------1----||---0----0--0--0--0--0--1--0--|


                        
     
----------------------------|----------------------------|
----------------------------|----------------------------|
----------------------------|----------------------------|
--/6----7----L\--------3----|--2-------------------3--2--|
-----------------2--2--3----|--2----2--2--2--2--2--3--2--|
--/4----5----L\--0--0--1----|--0----0--0--0--0--0--1--0--|


             
   
---------------------------------||
---------------------------------||
--------------------------------*||
--/6----7----/10---L\--------3--*||
-----------------------2--2--3---||
--/4----5-----/8---L\--0--0--1---||
#21
Quote by Alexishxc1337
E-----------------------------------
D--5-5--5-5----2-2-0-0---0-----
G--7-7--5-5----4-4-2-2---2-----
B--7-7----------4-4-2-2---2-----
A-----------------------------------
e------------------------------------

/thread


#22
Quote by Alexishxc1337
E-----------------------------------
D--5-5--5-5----2-2-0-0---0-----
G--7-7--5-5----4-4-2-2---2-----
B--7-7----------4-4-2-2---2-----
A-----------------------------------
e------------------------------------

/thread


LOL

that's hit me with your best shot upside down
Quote by Carmel
You are a redeeming feature for the UG Swedish population.


All-riiight.
#23
Quote by billybusa
Lol isn't that that circus song?


We have a winner
"Kids in the backseat cause accidents, accidents in the back cause kids."

"Secrets are like herpes, if you have 'em you might as well spread 'em."
#24
Quote by dp2007
e|-------------------------------------------------------
B|----------------------7-8-7----------------------------7-7-8-7---7---7
G|----6-----6-7--6-7-9-------9-7-6---6-7---6-7-9-6-7-9---------10-10--7
D|8-9---8-9----9--------------------9-----9------------------------------7
A|--------------------------------------------------------------------------9


not all of it but you should be able to get it


with my plug in babyyyyyyyyyyyyyyyyyy crucifies myyyy enemieeeeeeeeeeees.
"And after all of this, I am amazed...

...that I am cursed far more than I am praised."
#25
^
We have a winner!!!
Quote by Fassa Albrecht
Did I ever tell you how much I love you?

[quote="'[x"]Huffy[x]']My father once said to me "Son, masturbation can stunt your growth and make you blind".

I said "I'm over here, shorty".
#26
Standard tuning

|-0---0---0---------------------------------------0---0---0-------|
|---4---4---0-3-1-------------0---------0-1---------4---4---0-3-1-|
|--------------------2------2---------1---------------------------|
|-------------------------2---------2-----------2-----------------|
|-----------------------3-----------------------------------------|
|-----------------------------------------------------------------|


|-------------------------0---0---0-------------------|
|----------0-------1-0-----4---4-----0-3-1-------------|
|2-------2-------------2---------------------2------2-|
|------2---------2--------------------------------2---|
|----3------------------------------------------3-----|
|-----------------------------------------------------|
#27
Quote by Alexishxc1337
E-----------------------------------
D--5-5--5-5----2-2-0-0---0-----
G--7-7--5-5----4-4-2-2---2-----
B--7-7----------4-4-2-2---2-----
A-----------------------------------
e------------------------------------

/thread


Gear
-Ibanez RG321 ( /w D-Sonic)
-Agile AL-3100 (/w Custom + '59)
-Yamaha FG730S
-Crybaby 535Q
-Keeley TS-9
-ISP Decimator
-B-52 AT-212
Quote by Mental-lica
My hats off to you mr. lanzaa and you can put this in your sig

M en
E jaculating
T o
A wful
L yrics
#28
Quote by creeping.death!
Standard tuning

|-0---0---0---------------------------------------0---0---0-------|
|---4---4---0-3-1-------------0---------0-1---------4---4---0-3-1-|
|--------------------2------2---------1---------------------------|
|-------------------------2---------2-----------2-----------------|
|-----------------------3-----------------------------------------|
|-----------------------------------------------------------------|


|-------------------------0---0---0-------------------|
|----------0-------1-0-----4---4-----0-3-1-------------|
|2-------2-------------2---------------------2------2-|
|------2---------2--------------------------------2---|
|----3------------------------------------------3-----|
|-----------------------------------------------------|


Fur Elise?
Holden Caulfield is a friend of mine.
We go drinking from time to time.
#30
1|---------------------------------------------------------------------------|
2|---------------------------------------------------------------------------|
3|---------------------------------------------------------------------------|
4|------------5--------------------------------------------------------------|
5|--------7---------------7--------------------------------------------------|
6|----0-----------6---5------------------------------------------------------|
I see you're not using the UG black theme



Originally posted by GOD
akm_202, i now announce you, king of awesome. You may bow down to me.
#31
e|-------------------------------------------------------------------|
B|-------------------------------------------------------------------|
G|------------------------------0------------------------------------|
D|----2-0---0---------2-0---0-2-------2-0---0---------2-0---0--------|
A|--------2---2-0---------2---------------2---2-0---------2---2------|
E|--0-------------3-0---------------0-------------3-0-----------3-2--|

e|-----------------------------------------------------------------------|
B|-----------------------------------------------------------------------|
G|------------------------------0h2p0------------------------------------|
D|----2-0---0---------2-0---0-2-----------2-0---0---------2-0---0--------|
A|--------2---2-0---------2-------------------2---2-0---------2---2------|
E|--0-------------3-0-------------------0-------------3-0-----------3-2--|
Quote by Diet_coke_head
I love taking a nice dip of some horse shit, so good.
#32
Quote by akm_202
1|---------------------------------------------------------------------------|
2|---------------------------------------------------------------------------|
3|---------------------------------------------------------------------------|
4|------------5--------------------------------------------------------------|
5|--------7---------------7--------------------------------------------------|
6|----0-----------6---5------------------------------------------------------|



Enter Sandman
#33
Quote by akm_202
1|---------------------------------------------------------------------------|
2|---------------------------------------------------------------------------|
3|---------------------------------------------------------------------------|
4|------------5--------------------------------------------------------------|
5|--------7---------------7--------------------------------------------------|
6|----0-----------6---5------------------------------------------------------|


Enter Sandman.
#34
Quote by creeping.death!
Standard tuning

|-0---0---0---------------------------------------0---0---0-------|
|---4---4---0-3-1-------------0---------0-1---------4---4---0-3-1-|
|--------------------2------2---------1---------------------------|
|-------------------------2---------2-----------2-----------------|
|-----------------------3-----------------------------------------|
|-----------------------------------------------------------------|


|-------------------------0---0---0-------------------|
|----------0-------1-0-----4---4-----0-3-1-------------|
|2-------2-------------2---------------------2------2-|
|------2---------2--------------------------------2---|
|----3------------------------------------------3-----|
|-----------------------------------------------------|


Fur Elise.
It all makes sense
We're capable of beauty
Through sounds that make on cringe
The dogs only hear us now

#36
haha correct
I see you're not using the UG black theme



Originally posted by GOD
akm_202, i now announce you, king of awesome. You may bow down to me.
#37

C-----------------------------------------------------------------------------
G---------------------------------------------------------------------------
D#-----------------------------------------------------------------------
A#-------------------------------------------------------------------------------
F-----------10----9----12----10------12h14p12-10h12p10------------------------
C---0-0-0-----0----0------0-----0-0--------------------------------------------


Hint: Not open.
What you're in when you die.
Another word.
It all makes sense
We're capable of beauty
Through sounds that make on cringe
The dogs only hear us now

Last edited by spartan 118 at Jul 1, 2008,
#38
Quote by thankyougermany
e|-------------------------------------------------------------------|
B|-------------------------------------------------------------------|
G|------------------------------0------------------------------------|
D|----2-0---0---------2-0---0-2-------2-0---0---------2-0---0--------|
A|--------2---2-0---------2---------------2---2-0---------2---2------|
E|--0-------------3-0---------------0-------------3-0-----------3-2--|

e|-----------------------------------------------------------------------|
B|-----------------------------------------------------------------------|
G|------------------------------0h2p0------------------------------------|
D|----2-0---0---------2-0---0-2-----------2-0---0---------2-0---0--------|
A|--------2---2-0---------2-------------------2---2-0---------2---2------|
E|--0-------------3-0-------------------0-------------3-0-----------3-2--|


RATM- Bombtrack?
R.A.G.E.
#39
Quote by spartan 118

C-----------------------------------------------------------------------------
G---------------------------------------------------------------------------
D#-----------------------------------------------------------------------
A#-------------------------------------------------------------------------------
F-----------10----9----12----10------12h14p12-10h12p10------------------------
C---0-0-0-----0----0------0-----0-0--------------------------------------------


Hint: Not open.
What you're in when you die.


Closed Casket?
#40
Quote by Alexishxc1337
Closed Casket?


Almost; There's another word in there.
It all makes sense
We're capable of beauty
Through sounds that make on cringe
The dogs only hear us now