#1
Ok Here is my question, when I play I can play lots of alternative picking, and just finger movements, but when I play chords like in Sunshine of your love- Cream

it just comes out so chunky am I hitting the strongs to hard or is it the guitar because when I do it is so frett buzzy, I think it needs a setup but when i took it to the shop all they said was its fine and just did a little adjustment. like when I play something like paranoid for something that goes down to the 12th and 15th it gets really buzzy.

------------------------------------------------------------------------------
------------------------------------------------------------------------------
--------------------5---------------------------------------------------------
--7-7-7-------------5---------5-----------------------------------------------
--7-7-7-------------3---------5-----------------------------------------------
--5-5-5-----------------------3-----------------------------------------------
I've been waiting so long.......

Chorus part 2
------------------------------------------------------------------------------
------------------------------------------------------------------------------
-----------------5------------------------------------------------------------
--7-7-7----------5---------5------7-7-7-7-7-7-7-7-----------------------------
--7-7-7----------3---------5------7-7-7-7-7-7-7-7-----------------------------
--5-5-5--------------------3------5-5-5-5-5-5-5-5-----------------------------


Any help please

my gear is a
Dean razorback
#2
What is your amp, what are your settings, and what is that supposed to be a tab of?

And what do you mean by "chunky?"
Last edited by Flying Couch at Jul 2, 2008,