#3
Capo on 3rd fret

some chords:
Em9:0xx032
A13:x0x022
Ebdim:xx1212


intro:

e|--0h2----2--------2------------2p0---------------2-----2--------2------------------------2-------|
B|--3-------3--------3-------------------3-----------2-----2--------2---------------------1-----------|
G|--0-------0--------0--------0-------------0-------0-----0--------0-------0h2------2--------------|
D|-------------------------------------------------------------------------------------1-----------------|
A|------------------------------------------------------0----------0-------------------------------------|
E|--0------------0----------------------------------------------------------------------------------------|

e|-----------0h2---------0h2---------2p0------------2------------------------|
B|-----------3------------3-------------------3---------2------------------------|
G|------0-----------------0--------0-------------0-----0------------------------|
D|---------------------------------------------------------------------------------|
A|--------------------------------------------------------0------------------------|
E|--0----------------0------------------------------------------------------------|

Verse is the same as intro: Em9, A13, sometimes Ebdim is played in between

this is the variation he makes at the end of verse:
e|------------------------------0------------------|
B|---------3------------2------3-------------------|
G|--5-----5---------4--2------3-------------------|
D|--5-----4---------4--2------2-------------------|
A|------------------------------3-------------------|
E|--5-----4---------3--2---------------------------|


bridge:[chords only]

e|---------------------------------------------------------------------------|
B|------------3------3---------------------3------3------------------------|
G|----5------5------4------(4)-----5-----5------4------------------------|
D|----5------4------4------(4)-----5-----4------4------------------------|
A|---------------------------------------------------------------------------|
E|----5------4------3------(4)-----5-----4------3------------------------|


e|-------------------0-----0---------2--------2------------------|
B|---5-------3------2-----2---------3--------2------------------|
G|---4-------3------2-----1---------0--------0------------------|
D|---5-------2------0-----0---------------------------------------|
A|---4---------------2-----2------------------0-------------------|
E|-----------2--------------0---------0----------------------------|

outro:
e|------------------------------0--------0----------|
B|---------3------------2------3--------2----------|
G|--5-----5---------4--2------3--------2-----------|
D|--5-----4---------4--2------2--------0-----------|
A|------------------------------3---------2----------|
E|--5-----4---------3--2---------------------------|
Last edited by crmrz at Sep 2, 2010,