#1
Does any one know the name of the song Stans dad plays on guitar in the guitar hero episode?
#3
Carry on My Wayward Son?
How I wish, how I wish
That the world, that the world
Had just one
THROAT
And my fingers were around it


Literature thread
#5
D|------------------------5-----------------
A|------3---------5---5/7---753-5-----5-----
E|5-3-5-----5-3-5-----------------3-----2---
Last edited by Flying Couch at Jul 2, 2008,
#8
it's kansas, but personnaly, I like stan's dads vocals.
Quote by RU Experienced?
Go see U2, then you can say you contributed money to Bono's giant Irish tower built out of the blood, tears, and the hopes of African children.
#9
I thought I read somwhere that it was "Through The Fire And Flames" but I could have read it wrong...
"The Good Thing About Music Is, When It Hits You, You Feel No Pain" - Bob Marley
"When the power of Love over comes the love of power the world wil know peace" - Jimi Hendrix

::type

#11
That's like if somebody asked "What's the name of the song where he says 'Never cared for what they do...' ", and you answered:

"Are you fucking kidding me?

Metallica - Matters."

hahahahaaa.
#15
Quote by Flying Couch
D|------------------------5-----------------
A|------3---------5---5/7---753-5-----5-----
E|5-3-5-----5-3-5-----------------3-----2---


Don't Forget the

e--------------------------
B--------------------------
G---------------------12--
D---------------------12--
A--2-2--------------------
E--0-0--------------------
#17
it's definately carry on wayward son and dont make such a big deal about it for not getting the name. oh and ts how do u not know this song? it's one of the best songs of all time.
Deacon of Zeppelinism PM TheHeartbreaker to join
speed demon of the UG Jeepers
Member of the Neutral Milk Hotel club PM Hamish5178 to join~
#18
Quote by riffmasterjosh
it's definately carry on wayward son and dont make such a big deal about it for not getting the name. oh and ts how do u not know this song? it's one of the best songs of all time.


Calm down, man. But yeah, I'm surprised that this thread was started.