#1
can someone write a sweep that goes to this, i cant manage to write one that sounds correct.

its basic 4/4
drop c tuning
175bpm
preferably 8th note triplets

|------------------|----------------------------|--------
|------------------|----------------------------|--------
|------------------|----------------------------|--------
|------6----------|-------6------------6------|-------------
|------3----------|-------1------------1------|------------
|------3----------|-------1------------0------|-------------
Quote by Deliriumbassist
that's not a drink, that's just coke with random crap floating in it
#2
EDIT: sh1t, it's in Db major.


|-15p11------------------------11h15--18p15-------------------------15h18-
|----------13----------------13--------------------16-----------------16----------
|--------------12--------12----------------------------15---------15----------------
|------------------13~--------------------------------------17~--------------------
|------------------------------------------------------------------------------------------
|------------------------------------------------------------------------------------------

|-22p18------------------------18h22--22b23---22b23--22b23--20~-----
|----------20----------------20---------------------------------------------------------
|--------------19--------19-------------------------------------------------------------
|------------------20~-------------------------------------------------------------------
|-------------------------------------------------------------------------------------------
|-------------------------------------------------------------------------------------------
Last edited by DiMeTiMe at Jul 3, 2008,