#1
E-----------------------------------------------------------------------------------------------
A--0-000---3-33-333--5-555--7-779----------------------------------------------------
D------------------------------------------7-h9-----------------------------------------------
G-----------------------------------------------------------------------------------------------


idk wat i call it but you know... its just a run... oh and "h" means hammer-on the "9" on d... (standard tuning)
#3
Yeah, timing would be really helpful. A tempo and note values. Also when you're posting text tab like that put the code tags around it so it lines up. Also, you've written the tab upside down. It should be
G--------------------------------------
D---------------------------------7-h9-
A--0-000---3-33-333--5-555--7-779------
E--------------------------------------


As for it being in key, it is as far as I can tell. Looks to me like the key of A Minor.
sig goes here
#4
A Minor starting from the open A would ascend like this...

A, B, C, D, E, F, G (No sharps or flats)

He has an F# (9th fret, A string) in the bassline.

It isn't in key.
#5
Ah, you didn't notice what I did. He's written the tab upside down. Have a look at the one I rewrote.

However he could have that and just be using Pitch Axis Theory and going from A Minor to A Major.
sig goes here