#1
okay this is epic and i cannot tab it out for my life

the jam/improv outro to the song cave in this video the outro im talking about sounds arabian and starts at 5:28 (edit: seems to start more at 5;33, but im saying 5:28 just to be safe)

i just need the guitar tabbed out... pleaase

Emotion = true music

Gear

Vantage 718dt-1
Epi Special II
Crate V Series 212 18w
Fuzz Factory
MXR Phase 90
Last edited by CryingAlone at Jul 3, 2008,
#2
Thanks to the guitarist from an unsigned band I know who nicked this riff for one of his songs, I know it.

e|--------------------------------------------------------
B|-------10-9--------------------------------------------
G|--------------10-9h10p9-7--9--9-7-6-6h7p6----
D|-----------------------------------------------------8-7
A|----0----------------------------------------------------
E|---------------------------------------------------------

(Played 4 times, then the bass comes in, then played another 4 times before this bit is played)

e|--------------------------------------------------------
B|-------10-9--------------------------------------------
G|--------------10-9-10-9-7--9--9-7-6-6-7-6-------
D|-----------------------------------------------------8-7
A|----0----------------------------------------------------
E|---------------------------------------------------------

e|---------------------------------------------
B|---------------------------------------------
G|---------------6-7-9--9-7-9-9-10-9-7-9
D|----4-5-7-8--------------------------------
A|--0------------------------------------------
E|---------------------------------------------

e|--------------------------------------------------------
B|-------10-9--------------------------------------------
G|--------------10-9h10p9-7--9--9-7-6-6h7p6----
D|-----------------------------------------------------8-7
A|----0----------------------------------------------------
E|---------------------------------------------------------

e|-------------------------------------
B|-------------------------------------
G|---------------6-7-6--6-----------
D|-----4-5-7-8------------8-7-5--8
A|-------------------------------------
E|-------------------------------------

(This whole section is played twice and then the ending is this)

e|------------------------------------
B|------------------------------------
G|--2-2---2-2---2-2---2-2---3--3
D|--2-2---2-2---2-2---2-2---3--3
A|--0-0---0-0---0-0---0-0---0--0
E|--0-0---0-0---0-0---0-0---0--0

You'll have to excuse this ****ness of it, this is the firsty tab i've written out properly but I knew that I had the tab and I just really wanted to help.

Enjoy!
Guitars:
Ibanez GRG170DX
A crap little half-size starter guitar

Pedals:
Digitech RP90

Amps:
Roland Cube 30X
A cheap 10W
Last edited by nuttyboy at Jul 3, 2008,
#3
Thousands of thanks you rock i'll be pressing F5 meanwhile


(edit) if it makes it easier i have guitar pro and powertab so any format works

Emotion = true music

Gear

Vantage 718dt-1
Epi Special II
Crate V Series 212 18w
Fuzz Factory
MXR Phase 90
#4
Edited my post. Pretty sure it's 100% correct. Also, I didn't tab it.
Guitars:
Ibanez GRG170DX
A crap little half-size starter guitar

Pedals:
Digitech RP90

Amps:
Roland Cube 30X
A cheap 10W
#5
Thanks so much this is epic to play and to hear... can anyone point out what scale (and key) he is using in this? I have to learn to use the scale

Emotion = true music

Gear

Vantage 718dt-1
Epi Special II
Crate V Series 212 18w
Fuzz Factory
MXR Phase 90
#6
Can't help you on that one, sorry.

I don't understand scales either. My friend is teaching me them though.
Guitars:
Ibanez GRG170DX
A crap little half-size starter guitar

Pedals:
Digitech RP90

Amps:
Roland Cube 30X
A cheap 10W