#1
Recently I've been learning Wonderful Tonight by Eric Clapton, however, watching some of his live performances I found a very very nice little lick he plays.

You can see it here

The lick starts at 2:29 and ends at 2:48.

If any of you masters transcribes could tab it out for me, it would be greatly appreciated.
#2


e---------------------------------------------
B--------------12-13-15-15/17-15-------
G-------12h14------------------------------
D-12h14------------------------------------
A--------------------------------------------
E-------------------------------------------




e---------17b19r17--15--15-------17b9r17---15-14---------------------
B----15-----------------------15-----------------17-15-12-15--15-h17-
G-----------------------------------------------------------------------------
D----------------------------------------------------------------------------
A------------------------------------------------------------------------------
E----------------------------------------------------------------





e---------------------------------------------
B--15h17b19===17--15--13--12h13p12-----------------
G----------------------------------14--12--------12~-----------
D-------------------------------------------14~--
A--------------------------------------------
E-------------------------------------------





e---------------------------------------------
B--------------------------------15h17-----15~----
G---------12--/14---/16---/17-----------------
D--12h14-----------------------------------
A--------------------------------------------
E-------------------------------------------


There ya go