#1
http://pl.youtube.com/watch?v=u8MYQLiSrGo


I'm trying to tab(first attempt, by ear) the Kirk's intro of this tab, I don't know if I doing it good but so far I'm confident of chords. Look at this, maybe someone of You would get it, I just can't yet! I believe it's in standard tune 'cos after that he's playing unforgiven and nothing else matters, which both is in standard tune. And after that he don't change his guitar. Look at my word I done so far, and correct me if I'm wrong:

G D

e-3--3----------------3--------3-------------------|
B-3----3--------------2------2---2----------------|
G-0------0------------3----3-------3--------------|
D-0-------------------0-----------------------------|
A-2-----------2-2---------------------------------- |
E-3-----------3-3----------------------------------|


Repaeat this section few times and then, I got the problem I hear it like this:
e---5--5-5--5--5—(5)-\--7--5----5--5-------|
B------------------------------------------------|
G---2--2-0--2--0--(0)-\--4--2----------------|
D-------------------------------------0--2------|
A------------------------------------------------|
E------------------------------------------------|
And these seems like beeing repeated few times too. But I'm not sure if this is correct, this part. I'll appreciate every comments and help, cos i really like this music xD

and If I put this in wrong forum I'm sorry...