#1
Okay I learned the distorted part to More Than A Feeling so now I must learn the clean/acoustic part.

First Bar:

|-------------3------2--------|
|------3-----------------3----|
|----------2----------------0-|
|--0-------------0------------|
|------------------------------|
|------------------------------|

I fret this as a D and use my pinky to fret the 3 on the high E.

The second bar is:

|-------------------------------------|
|--------2----------2-----------2---|
|-----0----------0----------0-------|
|-------------------------------------|
|--3---------2-----------------------|
|-------------------------3-----------|

Im wondering what is the best way to fret this to make it easier to switch back and forth really quick.

Spanks guys
#2
I'm like... 99.9% sure its supposed to be


|-------------------------------------|
|--------3----------3-----------3---|
|-----0----------0----------0-------|
|-------------------------------------|
|--3---------2-----------------------|
|-------------------------3-----------|

which should make it tons easier to play, cause then its kinda a Cadd9 and a Gadd9

I think... I might have the chord names wrong but... you get the idea
#3
Quote by SSDaniel105
I'm like... 99.9% sure its supposed to be


|-------------------------------------|
|--------3----------3-----------3---|
|-----0----------0----------0-------|
|-------------------------------------|
|--3---------2-----------------------|
|-------------------------3-----------|

which should make it tons easier to play, cause then its kinda a Cadd9 and a Gadd9

I think... I might have the chord names wrong but... you get the idea


Oh... wow I was off lol. And yeah I google the chords and they're right. Thanks =)
#4
i play it slightly different, i include an open A on the 5th string before playing the G on the bottom E string. but i use the middle finger and the index finger for the 5th and 6th string, the ring finger for the 2nd string and the pinky for the 1st string...hope that makes some sense.
AROUND THE WORLD



Click here if you like the Washington Wizards
#5
it took me a little while to develop a good fretting method for that part of the song, but eventually i found something that worked, i'm sure other people play it slightly differently though

sorry for the 2x post
AROUND THE WORLD



Click here if you like the Washington Wizards