#1
i've been playing guitar for 9 months. this was my first attempt at writing anything.

i'm not sure about the time signature, so i recorded myself playing it.

here's a link to the recording: https://www.ultimate-guitar.com/forum/showthread.php?p=15187320#post15187320




Guitar I: Clean
Guitar II: Distorted

Tuning: C G C F A D (Drop C)

Guitar I
     
e|------------------------------------------------------------|
B|------------------------------------------------------------|
G|------------------------------------------------------------|   x2
D|------------------------------------------------------------|
A|-----0---0---------0---0---------4---4---------4---4--------|
E|---0---0---0-0-0-0---0---0-0-0-4---4---4-4-4-4---4---4-4-4--|

Guitar I
    
e|---------------------------------------------------|
B|---------------------------------------------------|
G|---------------------------------------------------|
D|---------------------------------------------------|
A|------7---7---------7---7--------------------------|
E|---/7---7---7-7-7-7---7---7-7-7--------------------|

Guitar I
    
e|------------------------------------------------------------------|
B|------------------------------------------------------------------|
G|------------------------------------------------------------------|
D|-------9-------9-------8-------8-------9-------9-------8-----8----|
A|-----9---9---9---9---8---8---8---8---9---9---9---9---8---8--8--8--|
E|---9-------9-------8-------8-------9-------9-------8------8-------|

Guitar II
     
e|--------------------------------------------------|
B|--------------------------------------------------|
G|--------------------------------------------------|   x4
D|---2-2-2-2-2-2-2-2-3-3-3-3-3-3-3-3----------------|
A|---2-2-2-2-2-2-2-2-3-3-3-3-3-3-3-3----------------|
E|---2-2-2-2-2-2-2-2-3-3-3-3-3-3-3-3----------------|

Guitar II
     
e|------------------------------------------------------------------------|
B|------------------------------------------------------------------------|
G|-*---------------------------------*------------------------------------|  *x3
D|-*---------------------------------*--------------0-0-4-4-4-4-4-4-4-4---|
A|------------------------------------------------0-0-0-4-4-4-4-4-4-4-4---|
E|---0-0-0-0-0-0-0-0-4-4-4-4-4-4-4-4----0-0-0-0-0-0-0-0-4-4-4-4-4-4-4-4---|  
PM   _______________________________    ___

Guitar II
     
e|--------------------------------------------------|
B|--------------------------------------------------|
G|--------------------------------------------------|   x4
D|---2-2-2-2-2-2-2-2-3-3-3-3-3-3-3-3----------------|
A|---2-2-2-2-2-2-2-2-3-3-3-3-3-3-3-3----------------|
E|---2-2-2-2-2-2-2-2-3-3-3-3-3-3-3-3----------------|

Guitar I
                                                 *starting here, gradually slow down
e|--------------------------------------------------------------|
B|---------------------------------------------------------11---|
G|--------------------------------------------------------------|  
D|-------9-------9-------8-------8-------9-------9-------8------|
A|-----9---9---9---9---8---8---8---8---9---9---9---9---8--------|
E|---9-------9-------8-------8-------9-------9-------8----------|




i came up with the intro riff while i was sitting here spacing out, then heard my own playing and decided to write a song with it. it's pretty fun to play. it's more of a darker song, but has melody.
Last edited by nouOU at Jul 10, 2008,