#1
I know I've heard this before... what song is this


  1 & 2 & 3 & 4 & 

e-0-------0------
B-2---------2----
G-2-----------2--   x 2
D-2--------------
A-0--------------
E----------------

  1 & 2 & 3 & 4 & 

e----------------
B-0-------0------
G-2---------2----   x 2
D-2-----------2--
A-2--------------
E-0--------------
#2
Quote by iimjpii
I know I've heard this before... what song is this


1 & 2 & 3 & 4 &

e-0-------0------
B-2---------2----
G-2-----------2-- x 2
D-2--------------
A-0--------------
E----------------

1 & 2 & 3 & 4 &

e----------------
B-0-------0------
G-2---------2---- x 2
D-2-----------2--
A-2--------------
E-0--------------


That could be any song.

WTF?!
Sunn O))):
Quote by Doppelgänger
You could always just sleep beside your refrigerator.

Guitar:
- Ibanez S670FM w/ JB
- Fender 'Lite Ash' Stratocaster
- Fender '72 Deluxe Telecaster
- Arbiter LP Jr. Doublecut
Amp:
- Laney VC15

'72 Tele Appreciation Group
RIP DIO