#1
can anyone change the key of stray cat strut to a for me or tell me how to do so. i think the main riff would be something like:

E|--55-33-11-00


EDIT: here's the original tab in c. (i think) http://azchords.com/s/straycats-tabs-3846/straycatstrut-tabs-124396.html
Last edited by minifridge at Jul 11, 2008,
#2
alright i doubt anyone cares but i figured out how to do it and if anyone for some reason needs stray cat strut in a then here it is:
“Stray Cat Strut (in A)” - The Stray Cats
|---------|-----------|----|----||----------|----------||---------|-----|
|-7-6-5-4-|-3-2-1-----|----|----||o---------|---------o||---------|-----|
|---------|-------3---|----|----||o---------|---------o||-------5-|-6-7-|
|---------|---------5-|----|----||--5-5-3-3-|-1-1-0-0--||-5-7-8---|-----|

|-----|---------|---------|---------|---------|-------|----||----------|
|-----|---------|---------|---------|---------|-------|----||o---------|
|-----|---------|---------|-------5-|-6-7-----|-------|----||o-5-5-3-3-|
|-8-7-|-5-5-3-3-|-1-1-0-0-|-5-7-8---|-----8-7-|-5-----|----||----------|

           3x                                  2x
|----------||-------|---||----------|----------||---------|---------|---------|
|---------o||-------|---||o---------|---------o||---------|---------|---------|
|-1-1-0-0-o||-5-----|---||o---------|---------o||---2-3-5-|-6-7-----|---------|
|----------||-------|---||--5-5-3-3-|-1-1-0-0--||-5-------|-----8-7-|-5-5-3-3-|

|-------------|-------------|-------------|
|-------------|-------------|-------------|
|-------------|----2--3--5--|-6--7--------|
|-1--1--0--0--|-5-----------|-------8--7--|

|------------|----------|-------------|------------|----|
|------------|----------|----2--3-----|------------|----|
|------------|----------|-5--------5--|-3--3--2----|----|
|-5----------|----------|-------------|----------6-|----|

|---------|---------|---------|---------|---------|---------||----------|
|---------|---------|---3-2---|---------|---------|---------||o---------|
|---3-2---|---2-3-4-|-5-----5-|-3-2-----|---------|---4-7-4-||o---------|
|-5-----3-|-5-------|---------|-----5-6-|-7-5-4-2-|-5-------||--5-5-3-3-|

           3x                                  2x
|----------||-------|---||----------|----------||---------|---------|---------|
|---------o||-------|---||o---------|---------o||---------|---------|---------|
|---------o||-------|---||o---------|---------o||---2-3---|---------|---3-7-3-|
|-1-1-0-0--||-5-----|---||--5-5-3-3-|-1-1-0-0--||-5-----5-|-6-7-3-2-|-5-------|

|---------|---------|---------|---------|---------|---------|---------|-|
|-6-5-2-5-|-7-5-2---|---------|---------|---------|---------|---------|-|
|---------|-------3-|---2-3---|---------|---3-2---|---2-3-5-|-6-7-3-2-|-|
|---------|---------|-5-----5-|-5-3-0-3-|-5-----4-|-5-------|---------|-|
                       2x
||----------|----------||-------|---|---------|---------|---------|-------|
||o---------|---------o||-------|---|---3-2---|---------|---------|-------|
||o---------|---------o||-------|---|-5-----5-|-3-3-2---|---3-2---|---2-3-|
||--5-5-3-3-|-1-1-0-0--||-5-----|---|---------|-------6-|-5-----3-|-5-----|

                                                                   3x 
|---|---------|---------|---------|---------||----------|----------||-------|
|---|---3-2---|---------|---------|---------||o---------|---------o||-------|
|-4-|-5-----5-|-3-2-----|---------|---4-7-4-||o---------|---------o||-------|
|---|---------|-----5-6-|-7-5-4-2-|-5-------||--5-5-3-3-|-1-1-0-0--||-5-----|

|---------|-----------|---|---------|--------|
|-7-6-5-4-|-3-2-1-----|---|---------|--------|
|---------|-------3---|---|---2-4-5-|---5----|
|---------|---------5-|---|-5-------|--------|