#1
Hi,

I was looking for a Tab when i saw something like this in it:
|-----------------------------------------------------|
|-----------------------------------------------------|
|-9-9-9-7-7-12-12-12--9-9-9-7-7-12-12-12-|
|-----------------------------------------------------|
|-7-7-7-5-5-10-10-10--7-7-7-5-5-10-10-10-|
|-----------------------------------------------------|

and I thought How do I play this? Is it by picking up and down the A and G strings?
Maybe you will find this easy but i'm a beginner.

thanks for the answers.
#2
you just mute the middle note with your middle finger and strum all three strings
Quote by Carmel
You are a redeeming feature for the UG Swedish population.


All-riiight.
#3
Quote by billybusa
you just mute the middle note with your middle finger and strum all three strings


^This.
#4
you would have to listen to the song there is a i would say three ways the play that, one like you said a pick, plucking with two fingers simultaneously, or slapping with your thumb and popping with another finger simultaneously
#5
If the middle string sounds good, play it too. For example, in Killswitch Engage, the tab reads:
|--14-15--12--10-----------|
|-------------------------------|
|--12-13--10---8------------|
but I play it
|--14-15--12--10---------|
|--0---0----0----0---------|
|--12-13--10---8---------|
because the G (in CGCFAD) sounds good with it.

Ibanez SR506BM
Ashdown Little Giant 1000w
Peavey TVX 115+410
A big ass upright

#6
the easiest way is to hold the lower note with your index, and the higher with your ring finger. Your index has to mute that string.
#7
you could either strum the three and mute the middle string or just pluck with your thumb and first finger
Thanks for reading this... Ladies
#8
That's in Dying in Your Arms by Trivium, right? Anyway just play it like any other power chord but mute the middle string with your index.