#1
not sure if this is the correct are to post but anyway.
i want to learn to sweep.
i can sweep something like this quite fast

e---5---
B----6--
G-----7-

just three strings from a chord position.
where do i go from there?
#6
try something like

e-----17p12-----------12h17-----
B-------------13----13-------------
G----------------14-----------------

or

e--------16p12------------12h16--
B----------------14-----14-----------
G--------------------13---------------
#7
e---5------------5h6-5
B----6---------6--------6
G-----7--5h7-------------7p5

this is what I do, similar to what you do, but forces you to use legato, which you will almost always do in sweeps, I suggest this before more string sweeps because you will be using this when you do them, and u gotta have it down
BE HAPPY

Quote by ajmasterjaydude
so this kid at my school microwaved brussel sprouts for lunch, and when he was about to eat them one of them exploded on his face and burned him. i like turtles


in a thread about malmsteen^
#8
an easy pattern i think are the 3 string sweeps in under the influence by rusty cooley, maybe not as fast as he plays it but the pattern xD
Jackson DK2M Dinky Pro W/ EMG 81/85 18v Black
ESP LTD EC-1000 W/ EMG 81/60 See Thru Blue
Schecter C-1 HellRaiser W/ EMG 81TW/89 Black Cherry
Peavey 6505 W/ 2x12 V30