can someone correctly tab this fugees song..-mista mista? -audio included

#1
there's a tab currently around but they're totally wrong.. or maybe i dont knojw how to interpret it.. but it doesnt even some remotely like it.. when you're playing it to the song..

maybe who ever tabbed it tuned their guitar differently ..anyway can someone help.. here's is the song..


http://www.zshare.net/audio/15316960be4ce84d/
#2
It's standard tuning but 1 full step down (DGCFAd)
...but the chords will be related to a standard tuning...
chords:
Dm7: x57568
G: 355433
Cmaj7: x35453
F: 133211
Bbmaj7:x13231
E/Ab: 4x6454


intro:
d|-------------------7/8\7/8\7/8--------|
A|--------------0--------------------------|
F|----------5------------------------------|
C|------7----------------------------------|
G|---0-------------------------------------|
D|------------------------------------------|

verse progresion:
x07500 -x06500 -x05500 -x04500

Chorusm7 G Cmaj7 F Bbmaj7 E/Ab
#3
Quote by crmrz
It's standard tuning but 1 full step down (DGCFAd)
...but the chords will be related to a standard tuning...
chords:
Dm7: x57568
G: 355433
Cmaj7: x35453
F: 133211
Bbmaj7:x13231
E/Ab: 4x6454


intro:
d|-------------------7/8\7/8\7/8--------|
A|--------------0--------------------------|
F|----------5------------------------------|
C|------7----------------------------------|
G|---0-------------------------------------|
D|------------------------------------------|

verse progresion:
x07500 -x06500 -x05500 -x04500

Chorusm7 G Cmaj7 F Bbmaj7 E/Ab



thanks playa