#1
so ive been searchin all over to find the midi file of the original Batman Theme for Gameboy and now i finally have it but its a midi so the quality isnt the greatest....If somebody could hook me up with a quick tab for the solo I would bow down to you....PLEASE SOMEBODY HELP ME OUT!! (I doubt theres any tabs already on the internet so u might have to go by ear. For an experienced guitarist it shouldnt take any more then 10 minutes) I APPRECIATE ANYBODY WHO ATTEMPTS THIS AND WILL REPAY YOU SOMEHOW JUST LET ME KNOW) THANK YOU.

http://www.zshare.net/audio/153240338d3b8304/
#2
go to fretplay.com and search for it i found the chords and check here i found the power tab and normal so i hope i helped
#3
i knoew its a 12 bar blues but thats as much as i can help you
Dan The Man Of the Australia FTW! Club. PM Alter-Bridge or The_Random_Hero to join. Australians Only

Gear Fund 1000/ ???

Yes his name is Dan
#4
i just figured out the main part, and i might try the solo tomorrow, but for now im going to sleep lol, so do you want to PM me your e-mail so i can send it to you or what?
Fender MIM Standard lefty strat (midnight wine, sexy i know)
Vox DA15
Quote by rock.meet Slash
oh yes but do they have....THE PIT?


Quote by rickmeister
Stealing is cool again? Sweet, I'm gonna rob a Subway brb
#5
n/m i guess i can attach it here hope this works

edit- im no experienced guitarist, but somehow that took me 10 minutes like you said, i shocked myself, lol.

2edit- sry i just had to change the tab by 1 fret, thanks
Attachments:
batman.txt
Fender MIM Standard lefty strat (midnight wine, sexy i know)
Vox DA15
Quote by rock.meet Slash
oh yes but do they have....THE PIT?


Quote by rickmeister
Stealing is cool again? Sweet, I'm gonna rob a Subway brb
Last edited by tennisace at Jul 14, 2008,
#6
thnx so much!!! ive been dyin to learn how to play that considerin i suck at earin out tabs... if its not too much trouble, do you think you can get me a tab for the solo too?? Thats my favorite part of the theme.
#8



e-15--18-17-15----15-----18-17-18-20--17-18-17-18-17-----15- 
B---18---------18-----18------------------------------18----
G-----------------------------------------------------------
D-----------------------------------------------------------
A-----------------------------------------------------------
E-----------------------------------------------------------


e---15--18-17-15----15-----18-17-18-20-22--20-18-17--18p17---15-
B-15--18---------18-----18---------------------------------18---
G---------------------------------------------------------------
D---------------------------------------------------------------
A---------------------------------------------------------------
E---------------------------------------------------------------



Something like that...
#9
THANK YOU!!!! i cant thank you enough...that tab wuz on the money...once again thank you so much!