#1
What about some cool stand alone riffs to play? I dont know what song this is from but it sounds amazing:


e||-------||-------------------------------------------|
B||-------||------------------------------13-----------|
G||-------||*--9---9-11-12-11-9------9-12----12-9----9-|
D||-------||*----9--------------9-10--------------10---|
A||-------||-------------------------------------------|
D||-------||-------------------------------------------|
  
-----------------------------------------||-------------|
---------12--------------------------12--||-------------|
----8-11----11-8---8-9---9-11---8-11----*||--9--------9-|
--9--------------9-----9------9---------*||-------------|
-----------------------------------------||-------------|
-----------------------------------------||-------------|

.

Any suggestions?