#1
Ok well I'm being taught music theory, and anyways I think I'm getting it, right now I'm using a Master Key Sheet and a Master Sheet for Major Scales to write my own scales out, so I'm just double checking this over if this is right:

This is the G Major Scale
 
Tonic-3
e|-------------------------------------------3--5--7----------------------------|
B|-------------------------------------5--7-------------------------------------|
G|----------------------------4--5--7-------------------------------------------|
D|-------------------4--5--7----------------------------------------------------|
A|----------3--5--7-------------------------------------------------------------|
E|-3--5--7----------------------------------------------------------------------|

2-4
e|-------------------------------------------5--7--8----------------------------|
B|----------------------------------5--7--8-------------------------------------|
G|-------------------------4--5--7----------------------------------------------|
D|----------------4--5--7-------------------------------------------------------|
A|----------5--7----------------------------------------------------------------|
E|-5--7--8----------------------------------------------------------------------|

3-5
e|-----------------------------------------------7--8--10-----------------------|
B|-------------------------------------7--8--10---------------------------------|
G|-------------------------------7--9-------------------------------------------|
D|---------------------7--9--10-------------------------------------------------|
A|-----------7--9--10-----------------------------------------------------------|
E|-7--8--10---------------------------------------------------------------------|

4-6
e|--------------------------------------------------8--10--12-------------------|
B|-------------------------------------------10--12-----------------------------|
G|--------------------------------9--11--12-------------------------------------|
D|----------------------9--10--12-----------------------------------------------|
A|------------9--10--12---------------------------------------------------------|
E|-8--10--12--------------------------------------------------------------------|

5-7
e|-----------------------------------------------------10--12--14---------------|
B|-----------------------------------------------12--13-------------------------|
G|------------------------------------11--12--14--------------------------------|
D|------------------------10--12--14--------------------------------------------|
A|------------10--12--14--------------------------------------------------------|
E|-10--12--14-------------------------------------------------------------------|

6-Tonic
e|----------------------------------------------------12--14--15----------------|
B|-----------------------------------------12--13--15---------------------------|
G|------------------------------11--12--14--------------------------------------|
D|-----------------------12--14-------------------------------------------------|
A|------------12--14--15--------------------------------------------------------|
E|-12--14--15-------------------------------------------------------------------|

7-2
e|----------------------------------------------------14--15--17----------------|
B|---------------------------------------------15--17---------------------------|
G|----------------------------------14--16--17----------------------------------|
D|-----------------------14--16--17---------------------------------------------|
A|------------14--15--17--------------------------------------------------------|
E|-14--15--17-------------------------------------------------------------------|


Just please tell me I'm doing these right, thanks.
Live Rig:
Ibanez Rg 150R w/ Duncan 59s
Marshall JCM2000 TSL60 Head
Mark IV Combo
Marshall 1960a Cab w/ Vintage 30s
Ibanez RG1570 Prestige w/ Duncan 59s
Jackson SLSMG Soloist
Currently in Ontario, Canada.


#4
Alright, thanks guys, just wanted to make sure I was doing everything right, and no the scales are crappy in the lessons section, wrong form.
Live Rig:
Ibanez Rg 150R w/ Duncan 59s
Marshall JCM2000 TSL60 Head
Mark IV Combo
Marshall 1960a Cab w/ Vintage 30s
Ibanez RG1570 Prestige w/ Duncan 59s
Jackson SLSMG Soloist
Currently in Ontario, Canada.