#1
I need help tabbing Take Five. I'm not a bass player and the volume isn't great so I'm having difficulty tabbing it. I've checked on the net for tabs and only found crap ones. If you could help me tab this it'd be great as I need it for a school piece.

I will be forever thankful if you help me out. Thanks.

P.S - There's a few videos on Youtube which could help.
#2
you could have done it yourself, It's such a simple bassline

   Part A (0:08)
   Eb-  Bb-7
  |----------|
 5|------8---|
 4|6-------4-|
  |----------|
   1+2+3+4+5+

 Part B (0:30)
  Cbmaj7     Bb-7       Ab-7       Gbmaj7
 |----------|----------|----------|----------|
5|----------|----------|----------|----------|
4|2-----2-2-|1-----1-1-|----------|----------|
 |----------|----------|4-----4-4-|2-----2-2-|
  1+2+3+4+5+ 1+2+3+4+5+ 1+2+3+4+5+ 1+2+3+4+5+


repeat as needed.
My sig used to be so awesome it got me banned
Last edited by Your_Dad at Jul 17, 2008,