#1
I'm tabbing all the Alice Cooper songs so far I have done (these are only for guitar):
*1) Unfinished Sweet (editing)
*2) Sick Things
3) Billion Dollar Babies (finishing solos)
*4) My Stars
*5) Raped and Freezin'
*6) No More Mr. Nice Guy
*7) Is It My Body
*8) You Drive Me Nervous (editing)
*9) Working Up A Sweat
10) Gutter Cat vs. The Jets (need to finish the end of the song)
*11) Long Way To Go (solo only)
*12) Generation Landslide (solo is being worked on)
*13) Luney Tune
14) I Love the Dead (solo is being worked on)
*15) Man With The Golden Gun
*16) Earwigs To Eternity
*17) Devil's Food
18) Wish You Were Here
*19) Wrapped In Silk
*20) Six Hours (intro only)
*21) Lock Me Up (main riff only)
*22) Today Mueller
23) Pretties For You Album
24) Easy Action Album
*25) Reflected
*26) Teenage Lament '74
*27) Crazy Little Child (I did the clarinet solo, I need the guitar now)
28) Disgraceland (in progress)
*29) Muscle of Love
*30) Beautiful Flyaway
*31) Woman Machine
*32) Grande Finale (keyboard and horns parts, I added what the guitars play as well)
*34) Public Animal #9
*35) Road Rats
*36) I Know Where You Live
*37) Wake The Dead
*38) Vengeance Is Mine (intro)
*39) Yeah, Yeah, Yeah
*40) Nobody Likes Me (Demo version from Life and Crimes of Alice Cooper)
*41) Rock N Roll Radio by the Billion Dollar Babies
*42) Dyslexia
*43) Triggerman (main riffs)
*44) Cold Ethyl
*45) Go To Hell
*46) I Like Girls
*47) You Look Good In Rags
*48) Titanic Overture
*49) Nurse Rozetta
*50) Unfinished Sweet
*51) Mary Ann
*52) Cleansed By Fire (intro)
*53) Steven
*54) The Ballad of Dwight Fry
*55) Halo Of Flies
*56) Woman Machine

I haven't released all of them but I starred the ones that I did. If you have any requests please tell me and I would be glad to help out. I know some great sites with Alice songs that you can't find easily so I will post those too.

-Links removed by mod!
Last edited by DoteStudios at Nov 17, 2008,
#3
Quote by melinbrawl
please tab the song what do you want from me!!!!!!
along came a spider rocks!!!!

I'm on it!
#4
its really cool you doing this, long live the Coop.
As for help in the chorus of the Black Widow after the 'yes we love me' part do you know what the three notes are (might be arppegios) otherwise ive done most of the song (minus solos because im a slack tabber and an improviser )
Then i just need to finish the awakening to finish a scrappy WTMN album hehe

EDIT: I meant 4 notes, i cant count
I'm gonna live forever and if I don't suceed i'll die trying.
Originally posted by Liberation
Damn. You win Master Shake. I am not worthy!
Last edited by Master Shake at Aug 7, 2008,
#6
Quote by Master Shake
its really cool you doing this, long live the Coop.
As for help in the chorus of the Black Widow after the 'yes we love me' part do you know what the three notes are (might be arppegios) otherwise ive done most of the song (minus solos because im a slack tabber and an improviser )
Then i just need to finish the awakening to finish a scrappy WTMN album hehe

EDIT: I meant 4 notes, i cant count


This is what is played:

"Love me yes we love me..."
E---------5--3------------------------------8--7--------------------|
B-7--5----------7--5--(4x)--7-8-7-8-7---------------------------|
G---------------------------------------------------------------------|
D---------------------------------------------------------------------|
A---------------------------------------------------------------------|
E---------------------------------------------------------------------|

Also I already tabbed the solo (I did this whole song a month ago) if you want it.
#7
^ nah theres another part to it, a second guitar that plays notes after that if you listen carefully. Also i have it down an octave as


E|-----------------------------------||
B|---------------------------------?-||
G|-------------------------------?---||
D|-4--2---7-5-4-2-------------?------||
A|--------------------------?--------||
E|-----------------------------------||

E|------------7-8-7---------------------||
B|------------7-8-7---------------------||
G|-4-5-4-5-4-5-------9-9-9-9-12--7--9---||
D|-4-5-4-5-4-5-------9-9-9-9-12--7--9---||
A|-------------------7-7-7-7-10--5--7---||
E|--------------------------------------||

etc
I'm gonna live forever and if I don't suceed i'll die trying.
Originally posted by Liberation
Damn. You win Master Shake. I am not worthy!
#9
Thanks for doing this! This is great! I'm especially looking forward to "Luney Tune."
#10
Newly released:
1) Beautiful Flyaway
2) Muscle Of Love
3) Wrapped In Silk
4) Wake The Dead
5) Grande Finale (keyboard and horn parts, I also added the guitar)
6) Road Rats (no solos)
7) Teenage Lament '74
8) Public Animal #9
9) I Know Where You Live
*Some are still processing

Working on right now:
1) Vengeance Is Mine
2) (In Touch with) Your Feminine Side
Last edited by DoteStudios at Aug 11, 2008,
#11
Here's the intro to Nobody Likes Me:

Keys
t = trill (multiple, fast hammer-ons)

E------------------------------------------------------------------------|
B------------------------------------------------------------------------|
G----------6-----------------6-------------------3---------------------|
D-------8-----8-----------8-----8-----------4-----4------------------|
A----8-----------8-----8-----------8-----4-----------4--3--4--3t4--|
E-6-----------------4-----------------2--------------------------------|
#12
Newly released:
1) Mary Ann (what Alice sings and the piano solo transcribed guitar)
2) Woman Machine
3) Luney Tune
4) No More Mr. Nice Guy
Last edited by DoteStudios at Aug 28, 2008,
#13
Newly released:
1) Crazy Little Child
2) Steven
3) The Ballad of Dwight Fry
4) Halo Of Flies
5) Cleansed By Fire
6) Mary Ann
7) Unfinished Sweet (updated)
8) Is It My Body (updated)
9) My Stars (updated)

Coming soon...
1) Return of the Spiders
2) Yeah Yeah Yeah
3) Nobody Likes Me (Demo version from Life and Crimes of Alice Cooper)
4) Refrigerator Heaven
5) New Generation (Dennis Dunaway Project)
6) Rock N Roll Radio (Billion Dollar Babies)
#14
Quote by DoteStudios
Newly released:
1) Crazy Little Child
2) Steven
3) The Ballad of Dwight Fry
4) Halo Of Flies
5) Cleansed By Fire
6) Mary Ann
7) Unfinished Sweet (updated)
8) Is It My Body (updated)
9) My Stars (updated)

Coming soon...
1) Return of the Spiders
2) Yeah Yeah Yeah
3) Nobody Likes Me (Demo version from Life and Crimes of Alice Cooper)
4) Refrigerator Heaven
5) New Generation (Dennis Dunaway Project)
6) Rock N Roll Radio (Billion Dollar Babies)


man,it's very cool you have tabbed yeah,yeah,yeah!it's a great song!one of my favourite from alice!cool!
#15
If anyone reads this, please could you tab out "Go to Hell" by him? LOVE that song
Are you gonna go my way? ...No seriously dude, are you? Cause i gotta get a ride
#16
I'm actually tabbing Go To Hell. Here's what I've recently finished:

1) Grande Finale (updated, also with time markings)
2) Public Animal #9 (updated)
3) Raped and Freezin (updated)
4) Yeah Yeah Yeah
5) Nobody Likes Me (Demo version from Life and Crimes of Alice Cooper)
6) Rock N Roll Radio by the Billion Dollar Babies
7) Dyslexia
8) Reflected
9) Triggerman (main riffs)
10) Working Up A Sweat (Mike's and Mick Mashbir's/Rhythm Guitarist's parts)
11) Vengeance Is Mine (intro/main riff)
#17
Newly released:
1) Cold Ethyl
2) Go To Hell
3) I Like Girls
4) You Look Good In Rags
5) Titanic Overture
6) Nurse Rozetta
7) Reflected (updated)
#18
Quote by DoteStudios
I'm actually tabbing Go To Hell. Here's what I've recently finished:

1) Grande Finale (updated, also with time markings)
2) Public Animal #9 (updated)
3) Raped and Freezin (updated)
4) Yeah Yeah Yeah
5) Nobody Likes Me (Demo version from Life and Crimes of Alice Cooper)
6) Rock N Roll Radio by the Billion Dollar Babies
7) Dyslexia
8) Reflected
9) Triggerman (main riffs)
10) Working Up A Sweat (Mike's and Mick Mashbir's/Rhythm Guitarist's parts)
11) Vengeance Is Mine (intro/main riff)


your tab of go to hell was really cool!it was awesome to see that you tabbed songs from dada too!great!please tab discraceland!i don't know why but i love this song!
#19
Quote by melinbrawl
your tab of go to hell was really cool!it was awesome to see that you tabbed songs from dada too!great!please tab discraceland!i don't know why but i love this song!


Ya I actually have been working on that for a long long time, I'll finish it eventually. It's like an on and off project. I'm think I've done one song from every album, some I haven't released cus I'm revising them, such as Gutter Cat vs. The Jets, Return of The Spiders, and more i forgot.
#20
Master Shake,

The notes are arpeggios I've been assured by someone who knows how to play it. I'm trying to get them divulge soon.
#21
The arpeggios go-

e|-----------8-----------------7---12---7----------------12--15--12---------------|
B|--------8----8-----------8--------------------------14----------------14-----------|
G|-----9----------------9-------------------------15----------------------------------|
D|-10-----------------------------------------------------------------------------------|
A|---------------------------------------------------------------------------------------|
E|----------------------------------------------------------------------------------------|