#1
Hopefully this is the right forum. If not, just tell me and I'll move it.

This is my bands new song called "I need you" its done on acoustic guitars. Its kind of a country-blues sounding song. The solo is very blues oriented. My friend made up the main parts of the song, and I made the solo. I'm just going to post the solo. Its pretty simple. I would put it in the tabs section, but the tabs won't work on my computer for some stupid reason.
Anyway, here it is.

h=hammer-on
p=pull-off
/=slide down
b=bend
r=release
s=slide
e--------------------------------------------
B-----------------------------------------8-
G-----------7----7h9--7--------------7-9---
D--5~---/9---9----------9p7-5---/9--------

--10-10-10---------------------------------
--10b---10r-8h10-8-10p8-10p8------------
---------------------------------9-7--------
--------------------------------------------

--------------------------------------------
--------------------------------------------
------7-7--5-5-5--4-4--0-4-5-5s7-5-7-7s9
--/9--9-9--7-7-7--5-5---------------------

---------------------------------------------
---------------------------------------------
-7-5-4--4-2-2-2-2s4-4---------------------
---------5-3-3-3-3s5-5---------------------

Hope you guys can read that. try it out and tell me what you think. its a first for me. Most of my solos are metal.
Last edited by --LP-- at Jul 19, 2008,
#4
e--------------------------------------------
B-----------------------------------------8-
G-----------7----7h9--7--------------7-9---
D--5~---/9---9----------9p7-5---/9--------

--10-10-10---------------------------------
--10b---10r-8h10-8-10p8-10p8------------
---------------------------------9-7--------
--------------------------------------------

--------------------------------------------
--------------------------------------------
------7-7--5-5-5--4-4--0-4-5-5s7-5-7-7s9
--/9--9-9--7-7-7--5-5---------------------

---------------------------------------------
---------------------------------------------
-7-5-4--4-2-2-2-2s4-4---------------------
---------5-3-3-3-3s5-5---------------------