#1
Ok, now that it took me a good 10 mins to figure out the code tool , I can't figure out how to set up this riff so that it stays in the same time signature. I have the measures with the 4 quarter notes in 2/4 and all the other measures in 3/4. Can someone help me set it up so that its all the same?

     Q.     Q.        Q.     E   E   E      E   E   E   E      Q.     Q.      
E||--4------4------|--4------4---4---4---|--4---4---4---4---|--4------4------|
B||--4------4------|--4------4---4---4---|--4---4---4---4---|--4------4------|
G||--1------1------|--1------1---1---1---|--1---1---1---1---|--1------1------|
D||--3------3------|--3------3---3---3---|--3---3---3---3---|--1------1------|
A||--3------3------|--3------3---3---3---|--3---3---3---3---|--3------3------|
E||--1------1------|--1------1---1---1---|--1---1---1---1---|--4------4------|


    
  Q.     E  E  E     E  E  E  E     Q.     Q.        Q.     E  E  E   
--4------4--4--4--|--4--4--4--4--|--3------3------|--3------3--3--3--|
--4------4--4--4--|--4--4--4--4--|--4------4------|--4------4--4--4--|
--1------1--1--1--|--1--1--1--1--|--3------3------|--3------3--3--3--|
--1------1--1--1--|--1--1--1--1--|--1------1------|--1------1--1--1--|
--3------3--3--3--|--3--3--3--3--|--1------1------|--1------1--1--1--|
--4------4--4--4--|--4--4--4--4--|--3------3------|--3------3--3--3--|


    
  E  E  E  E     Q.     Q.        Q.     E      E      E       
--3--3--3--3--|--4------4------|--4------4------4------4------|
--4--4--4--4--|--4------4------|--4------4------4------4------|
--3--3--3--3--|--1------1------|--1------1------1------1------|
--1--1--1--1--|--3------3------|--3------1------3------1------|
--1--1--1--1--|--4------4------|--4------1------4------1------|
--3--3--3--3--|--1------1------|--1------1------1------1------|


      
  E      E      E      E         
--4------4------4------4-------||
--4------4------4------4-------||
--1------1------1------1------*||
--3------1------3------1------*||
--4------1------4------1-------||
--1------1------1------1-------||
#2
You can use triplets when you have three 8ths. That way everything will be in 2/4 time signature.