#1
i have played guitar for a number of years, but never bothered to learn sweep picking.

now i want to start, where should i start? what sort of thing should i learn first?

is there anything you reccomend?

cheers boys!
#2
use the search function of this site. theres even links to videos and exercises.

jym
#3
*sighs*


There is a thread on it....Find it.
Gear:
Epiphone SG
H&K 100watt Stack
Ibanez Practice Amp
Takamine Acoustic.


TOOL
#4
When you learn how to sweep you should learn that riff from Stabwound By Necrophagist, I've played it more than a million times in my life and it's still not old haha
#6
Quote by PanteraRapesYou
When you learn how to sweep you should learn that riff from Stabwound By Necrophagist, I've played it more than a million times in my life and it's still not old haha

+8
#7
I started with a D major triad something like.

e|--15---12----------------------------------------------------------------|
B|--------------12----------------------------------------------------------|
G|------------------13------------------------------------------------------|
D|----------------------12--------------------------------------------------|
A|---------------------------------------------------------------------------|
E|---------------------------------------------------------------------------|



Then

e|-15--13--15-12----------------------------------- 12------------------|
B|---------------------12--------------------------13---------------------|
G|-------------------------13------------------12-------------------------|
D|-----------------------------12--14-12-14-----------------------------|
A|---------------------------------------------------------------------------|
E|---------------------------------------------------------------------------|


If it's the technique you need to learn about, there are alot of videos that should explain it alot better than I can.