#1
need some help guys. what finger patterns should i use on a sweep like this:

----8-5-----------------------
--------5----------------------
---------5---------------------
-----------7-------------------
------------7------------------
--------------8-5-------------

ive never posted a tab like this either so lemme know if it dosent make sense somehow
(signature removed, please choose another)
#3
Im guessing pinky on the 8's index rolling on the 5's then either middle on first 7 and ring on second, OR middle on both 7's OR ring on both 7's
its personal preferance lol
#4
In order, 1 being index and 4 pinky; 4 1 1 1 3 3 4 1

This barre rolling is hard to perform, but I'm working on it aswell.
Quote by MH400
a girl on the interwebz?

You have 2 options.

1. Tits.
2. GTFO.

#5
4 1 1 1 3 3 4 1
8-5-------------------------
-----5-----------------------
--------5--------------------
-----------7-----------------
-------------7---------------
---------------8-5-----------

The numbers at the top are the fingers you'd use, you'd need to roll your index and ring fingers though. Hope that helps.

Edit: I'll change it now, it didnt work haha
#7
Quote by player o slayer
yeah that roll is a mother ****er

haha yeah, i've only just realised how hard it is toplay that one fast :P
#8
that and my ring finger goes retarded during quick sweeps like that
(signature removed, please choose another)