#1
Band...Dethklok
Song...Dunca Hills Cofee Jingle Solo
Tuning...Drop D
I like this song but I think The best part is the SOLO I know it 100% Right I hope you like it PE@CE!


e -13-17-13----------13-17-15-17-18-17-15----------
b ------------15----15-------------------------------15-17----
g ---------------14-------------------------------------------
D ------------------------------------------------------------
A -------------------------------------------------------------
D --------------------------------------------------------------

e -12-15-12----------------------12-15--
b -------------15---------------13---------
g ---------------12---------12------------
D ------------------14--14----------------
A ---------------------15------------------
D -----------------------------------------


e -13-12-10-13---15-13-12----
b ---------------------------------13--
g ------------------------------------
D ------------------------------------
A ------------------------------------
D ------------------------------------

e -15-13-12-------------13-12-10--------------------------------
b -------------15-13-12--------------13-12-10------------------------
g ----------------------------------------------------12-10-7----------------
D ---------------------------------------------------------------12-10-7-12-----
A ---------------------------------------------------------------------------------
D ----------------------------------------------------------------------------------

(Agian)

e --13-17-13----------13-17-15-17-18-17-15----------
b -------------15----15------------------------------15-17----
g -----------------14--------------------------------------------
D ----------------------------------------------------------------
A ---------------------------------------------------------------
D ----------------------------------------------------------------

e -12-15-12---------------------12-15-----
b -------------15-------------13------------
g ----------------12-------12---------------
D ------------------14--14-------------------
A ---------------------15---------------------
D ------------------------------------------


e -13-12-10-13---15-13-12-----17-15-13-17---19-17-15-19----
b ---------------------------------13-----------------------------------------
g ----------------------------------------------------------------------------
D-----------------------------------------------------------------------------
A ---------------------------------------------------------------------------
D --------------------------------------------------------------------------


e -20-19-17-15-14-12-11-12---------------------
b -------------------------------------------------------
g -------------------------------------------------------
D --------------------------------------------------------
A ---------------------------------------------------------
D ---------------------------------------------------------
#2
It shows you how to play this on the special features of Metalocalypse season 1...
#3
but if you look it up on ultimate guitar Who ever Tabbed it was wong so I wanted to put u the right one so people can learn the real version
Last edited by sk82bleed at Jul 31, 2008,