Page 1 of 2
#1
alright, so you can only add a few notes each turn. Please try and make this sound decent. if your just throwing **** in aimlessly, please don't even bother. once the riff is complete. start a new line.


E-----------------------------
B-----------------------------
G----------------------------
D------------------------------
A---9-----------------------
E----------------------
Quote by Karl Sanders
its like a four finger, diminished thingy
#2
9-0
...Nothing you've ever...
...Planned on ever turned out...
...The way you planned...


...You're still disappointing them...
#3
E-----------------------------
B-----------------------------
G----------------------------
D------------------------------
A---9--0---------------------
E----------0----------------
#4
Quote by kinzoku
alright, so you can only add a few notes each turn. Please try and make this sound decent. if your just throwing **** in aimlessly, please don't even bother. once the riff is complete. start a new line.


E-----------------------------
B-----------------------------
G----------------------------
D------------------------------
A---9-9---------------------
E----------------------



Next
#5
E-----------------------------
B-----------------------------
G----------------------------
D------------------------------
A---9----10-------------------
E------0----------------
I've decided that my signature is terrible. I'm open to suggestions.


Click me, or I'll die.


# Un-nominated in UG Top 100,
#6
e-----------------------------
B-----------------------------
G----------------------------
D--------15-14--------------------
A---9/13----------------------
E----------------------
Gear:
PRS SE Singlecut, blue with stoptail (my baby)
Line 6 Spider III 75 (shut up)
Epiphone Les Paul standard
Cheapo Yamaha nylon string
even more cheapo Fender steel string acoustic
#7
------------------------------
-12-----9-----7------------
------0-----0-----0---------
-----------------------------
-----------------------------
-----------------------------
Quote by denizenz
I'll logic you right in the thyroid.

Art & Lutherie
#8
Quote by PollyWntsCrack

E----------
B---------
G---11--- Xa billion
D---11---
A---9-----
E---------



/thread
Just because I play the drums doesn't mean I suck at guitar, or ams that I's iz stoopidz.


Space that ain't yours
#9
e-----------------------------
B-----------------------------
G------------------14--------
D--------15-14-12------------------
A---9/13----------------------
E----------------------
#10


E------------------------------------
B------------------------------------
G------------------------------------
D------------------------------------
A---9--------------------------------
E------0-0-0-0-0-0-0-0-0-0-0----


amirite?
Jackson DXMG -> Vai Morley Wah -> Korg Black Tuner -> (Need a delay) -> Maxon OD808 -> BBE Sonic Maximizer -> ISP Noisegate -> Mesa Boogie Mark IV
#12
starting over.
E-----------------------------
B-----------------------------
G----------------------------
D--------9---11--12-----------------
A---9----------------------
E------------------------
Quote by Karl Sanders
its like a four finger, diminished thingy
Last edited by kinzoku at Aug 4, 2008,
#13
Quote by Fate_of_Mind
This is a really cool idea, but it looks so far like it will fail so much

+1.. cmon
Quote by Karl Sanders
its like a four finger, diminished thingy
#14
E-----------------------------------------------------
B-----------------------------------------------------
G-----------------------------------------------------
D--------9---11--12-\-0----------------------------
A---9---------------------------4-2----2/4----------
E-------------------------------------0---------------
The only things we hate are those things we try to hide from others.

Quote by Deliriumbassist
Quote by Carmel
Either way, I don't think bananas should be placed in such proximity to an ass

I disagree. Bananas and ass are like peaches and cream.
#15
E-------------------------------------------------------------------------
B------------------------------------------------------------------------
G--------------------------------------------------------------------------
D--------9---11--12-\-0----------------------------------------------
A---9---------------------------4-2----2/4------------------------------
E-------------------------------------0------0h2h(3)p0-0-0-0-0---------
#16
e------------------------------
B--------------------------------------
G------------------14--12-14-15---
D--------15-14-12------------------
A---9/13-----------------------------
E-------------------------------------



Edit: Wow I'm a bit late here.
#17
Let's make an At the Gates ripoff!


E-----------------------------
B-----------------------------
G----------------------------
D------------------------------
A---9----------------10------------------------------
E-------0-0-0-0-0-----0--0--0-0-0
#18
E----------------------------------------------------------------------|--------------
B----------------------------------------------------------------------|---------------
G----------------------------------------------------------------------|----------------
D--------9---11--12-\-0--------------------------------------------|--------------
A---9---------------------------4-2----2/4--------------------------|--5"7"8"5""-
E-------------------------------------0------0h2h(3)p0-0-0-0-0--|---------------

" = trem for tab nub.

How bout we do that to seperate the riffs so we can have all the riffs up, eh?

Eh?

Eh?
R.I.P. Charles Michael "Evil Chuck" Schuldiner
B. May 13 1967 - D. December 13 2001

Quote by eggsandham2
cuz ppl hate how power metal they are cuz they think its "gay" or w.e, which is immature and dirogitory
Last edited by Slaytanic1993 at Aug 4, 2008,
#19
Quote by piratemetalhead
Let's make an At the Gates ripoff!


E-----------------------------
B-----------------------------
G----------------------------
D------------------------------
A---10----------------10--9---------------------9--12------------9-10----
E-------0-0-0-0-0-------------0--0--0-0-0------------8-8-8-8---------7-7-7-7-7-

i love that riff..
Quote by Karl Sanders
its like a four finger, diminished thingy
#20
Quote by kinzoku
alright, so you can only add a few notes each turn. Please try and make this sound decent. if your just throwing **** in aimlessly, please don't even bother. once the riff is complete. start a new line.


E-----------------------------
B-----------------------------
G----------------------------
D------------------------------
A---9-----------------------
E----------------------


Moron, you already started wrong. F#? Everyone knows metal has to be in E minor. Like this.


E-----------------------------
B-----------------------------
G----------------------------
D------------------------------
A---------------------------
E-0- 000- 000- 000- 000- 000- 000- 000- 000- 3

Add a pinch on the G and heavy vibrato.
Quote by Sonicxlover
Kensai, I think I'll get a flamboyant sig.

Quote by Sonicxlover
Kensai, I think I'll get a flamboyant sig.

Quote by Sonicxlover
Kensai, I think I'll get a flamboyant sig.


Parker Nitefly Mojo sonnn
Jackson DK2M Dinky
Carvin Legacy
Fender Blues Jr.
Roland Cube 30X
#21
Quote by BGSM
B-------------------------------------------------------------------------
F#------------------------------------------------------------------------
D--------------------------------------------------------------------------
A--------9---11--12-\-0----------------------------------------------
E---9---------------------------4-2----2/4------------------------------
B-------------------------------------0------0h2h(3)p0-0-0-0-0---------



fixed
rawr
#22
Quote by BGSM

E-------------------------------------------------------------------------
B-------------------------------------------------------------------------
G------------------------------------------------------------------------
D--------------------------------------------------------------------------
A--------9---11--12-\-0----------------------------------------------
E---9---------------------------4-2----2/4------------------------------
A-------------------------------------0------0h2h(3)p0-0-0-0-0---------


^Fixed (More)
#23
Quote by Slaytanic1993
E----------------------------------------------------------------------|--------------
B----------------------------------------------------------------------|---------------
G----------------------------------------------------------------------|----------------
D--------9---11--12-\-0--------------------------------------------|--------------
A---9---------------------------4-2----2/4--------------------------|--5"7"8"5""-
E-------------------------------------0------0h2h(3)p0-0-0-0-0--|---------------

" = trem for tab nub.

How bout we do that to seperate the riffs so we can have all the riffs up, eh?

Eh?

Eh?

good idea. this is really sounding random....
Quote by Karl Sanders
its like a four finger, diminished thingy
#24
E------------------------------------------------------------------------------------
B-------------------------------------------------------------------------------------
G--------------------------------------------------------------------------------------
D-------------------------------------------------------------
A---5"7"8"5"-"7"8"10"-----------------------------------
E|--------------------------------------
Quote by Karl Sanders
its like a four finger, diminished thingy
#25
E------------------------------------------------------------------------------------
B-------------------------------------------------------------------------------------
G----------------------------12-13-----------------------------------------------------------
D----------------------------12-13-12"----------------------------------
A---5"7"8"5"-"7"8"10"10-11-12"---------------------------------
E|------------------------------------10"------

Yay...
R.I.P. Charles Michael "Evil Chuck" Schuldiner
B. May 13 1967 - D. December 13 2001

Quote by eggsandham2
cuz ppl hate how power metal they are cuz they think its "gay" or w.e, which is immature and dirogitory
Last edited by Slaytanic1993 at Aug 4, 2008,
#26
Quote by kinzoku
E------------------------------------------------------------------------------------
B-------------------------------------------------------------------------------------
G--------------------------------------------------------------------------------------
D-------------------------------------------------------------
A---5"7"8"5"-"7"8"10"-----------------------------------
E|--------------------------------------


Harmony part

E------------------------------------------------------------------------------------
B-------------------------------------------------------------------------------------
G--------------------------------------------------------------------------------------
D---3"5"7"3"-"5"7"8"------------------------------------
A-------------------------------------------------------------
E|--------------------------------------
Quote by Sonicxlover
Kensai, I think I'll get a flamboyant sig.

Quote by Sonicxlover
Kensai, I think I'll get a flamboyant sig.

Quote by Sonicxlover
Kensai, I think I'll get a flamboyant sig.


Parker Nitefly Mojo sonnn
Jackson DK2M Dinky
Carvin Legacy
Fender Blues Jr.
Roland Cube 30X
#27
slay can you edit that a bit better to make it clear where each note is to each other...
Quote by Karl Sanders
its like a four finger, diminished thingy
#28
Edited mah friend.

With my help I could make that a nice black metal riffery fest.
I get credit, right?

>.>.
<.<.
R.I.P. Charles Michael "Evil Chuck" Schuldiner
B. May 13 1967 - D. December 13 2001

Quote by eggsandham2
cuz ppl hate how power metal they are cuz they think its "gay" or w.e, which is immature and dirogitory
#29
Quote by Slaytanic1993
Edited mah friend.

With my help I could make that a nice black metal riffery fest.
I get credit, right?

>.>.
<.<.
I helped the second part :0. but yes. you are good! im trying to come up with something else after that.. sounds really good.. if we put some E raping parts before or after that riff, in theory it would sound nice.
Quote by Karl Sanders
its like a four finger, diminished thingy
Last edited by kinzoku at Aug 4, 2008,
#30
slay check ur pms.
Quote by Karl Sanders
its like a four finger, diminished thingy
#31
Here's a little death metal thing

Guitar 1
PM throughout
e|-----------------
B|-----------------
G|-----------------
D|-----------------
A|-----------------
E|-1h4p1-0--4h7p4-0


Guitar 2

e|---------------------
B|---------------------
G|---------------------
D|---------------------
A|-8h11p8----11h14p11--
E|--------0-----------0


Same timing, just kind of a flaw in the fact that the octave bit needs two digits unless you go to the D string.
Quote by marmoseti
Mastering your instrument is being able to play whatever you hear in your head, unhindered by inadequate technique. After that, it's all about what you've got to say, so there would be no "best," just a bunch of people saying exactly what they mean.
#32
Quote by kinzoku
slay check ur pms.


Got it all

I sent another one, ahs a good idea about how it'll work.
R.I.P. Charles Michael "Evil Chuck" Schuldiner
B. May 13 1967 - D. December 13 2001

Quote by eggsandham2
cuz ppl hate how power metal they are cuz they think its "gay" or w.e, which is immature and dirogitory
#33

e-13h17p13------13h17--15-17-18--17--15---------12h15p12--------------12-13-15~---12b(13)-12-10-13-13b(15)-13-12------15-13-12--------13-12-10-
B---------15--15-----------------------18-17~-----------13----------13------------------------------------------13~-----------15-13-12--------13-12-10
G-----------14--------------------------------------------12------12----------------------------------------------------------------------------------12-10-9
D-----------------------------------------------------------14--14--------------------------------------------------------------------------------------------12-10-9-12~
A-------------------------------------------------------------15
E

Let's go from here, shall we?
Plays:
Schecter Hellraiser Solo-6 FR Limited
Parker Mojo Fly
Ibanez SZR 720
Tanglewood Evolution
LaPatrie Etude DEMO
'66 Hagstrom Viking I (customized)
SGR C-7 (defretted)
Agile Intrepid 828

Amp, Pedals:
Laney LV300
BOSS RC-20XL
#34
Guys stop making one note crap stuff. He said make a metal riff, not a mallcore riff.
#35
|------------------------------------------------------------------------------------|
|------------------------------------------------------------------------------------|
|----------9"----------------------------------------10"--9"-7"---9"-----------------|
|---------------9"--------------------7"----9"-----------------------10"-9" ---10"---|
|---7"---------------10"--9"---10"---------------8"----------------------------------|
|------------------------------------------------------------------------------------|

>_>

<_<
#36
E|-----------------------------------------------------
B|-----------------------------------------------------
G|-----------------------------------------------------
D|--2--2--2--2-----------------------------------------
A|--2--2--2--2--2-1-------2--2--2--2--3--2--3-------
E|--0--0--0--0-------2-1--0--0--0--2--3--2--3--
Last edited by RIP Back in Red at Aug 4, 2008,
#37
This thread is the most incoherent thread here!!!
And its going nowhere.
Every guy posts up a completely different riff from the previous one.
#39
B---------------------------------
G#--------------------------------
D---------------------------------
A-10p-12p-13p-17p-16p-13p-12/13-
E---------------------------------
A---------------------------------
Page 1 of 2