#1
Well, some of the other forums are getting "Let's make a riff" topics, so now we get one. I guess the trick here is that it's a slower forum it should work better, as we won't have everyone posting at once.

So here's how it's gonna go; since this is the blues and jazz forum, we're gonna make a bluesy-jazzy thing. If we can manage to, I think it'd be cool if we one-upped everyone else and wrote a whole bloody song, but we'll see how a riff goes first, eh?

You guys know the deal, one or two notes each, and lets try and make it sound kind of good, yeah?

I'll start, standard tuning for now, alright guys?
e--------------------------------------
B--------------------------------------
G--------------------------------------
D--------------------------------------
A--------------------------------------
E---5----------------------------------
#2
e--------------------------------------
B--------------------------------------
G--------------------------------------
D-----------5-----------5---------------
A-------8-----6---6/7------------------
E---5----------------------------------
Quote by Twist of fate
Once, I watched Star Wars episode 4. I timed myself so that I came right when the death star blew up.

Afterwards, Han Solo said "Great shot kid, that was one in a million!"
#3
e--------------------------------------
B--------------------------------------
G--------------------------------------
D--------------------------------------
A-----------5h7------------------------
E---5---7------------------------------