#1
Can any one give me an example of they would pick these??

 E E E E +S  S E  E  E     E e e E +S  S E E E
|-------------------------|-----------------------|
|-----------------(0)-----|-----------------------|
|-2-2-0-2-(2)-0h2p=0------|-2-2-0-2-(2)-0-2-0-----|
|-2-----------------------|-2---------------------|
|-0-------------------3b4-|-0-----------------3b4p|
|-------------------------|-----------------------|


and

  E E E E +S  S E  E  E     E E E E +S  S E E E
|-------------------------|--------------------------|
|---2-0-2-(2)-----(0)-----|---2-0--------------------|
|---2-0-2-(2)-0-2--0------|---2-0-2-(2)-0-2-0--------|
|-------------------------|--------------------------|
|-0-------------------3b4p|=0-----------------3b4p===|
|-------------------------|--------------------------|



^^my main problem are when you play both g and b string. would you alternate them or down pick them?
#2
neither:you would finger-pick them. it's from RObert Johnson, and back then, they didn't have picks!
Myspace.

Quote by djmay71
it wasn't 7 days, it was 5.

and you call yourself the son of catholics

Quote by hugh20
I would keep it on my mantel piece and tell my grandchildren about the day I tried to overthrow the human race with my race of tree-men.
#3
Quote by guitarheroII
neither:you would finger-pick them. it's from RObert Johnson, and back then, they didn't have picks!


Cream version.


You could pick either way, do whatever works for you.