#1
can someone tab the acoustic version of "Tessellate" by Tokyo Police Club?
guitar and bass.

and add the strumming pattern.

thanks (:
Quote by GiantRaven
You are not human.

I am totally serious.

Quote by tilinmyowngrave
I was inspired by someone saying they had Millionaire on their Ipod

he's talking about me!
#2
Which acoustic version? this guy changes his acoustic versions all the time...

this is just one guitar...


v^ v^ v^ v^ v^v^v^ v^v^v^
e|-----------------------------------------------------------------------------------------------|
B|------99--------99-------99-------99------------999999--------999999---------------|
G|------99--------99-------99-------99------------999999--------999999---------------|
D|------99--------99-------99-------99----------- 999999--------999999---------------|
A|---7-------7h9-------7----------------------------------------------------------------------|
E|---------------------------------9----------7h9----------------7---------------------------|

or sometimes he strums the chord up and down along with the bass...

here's another version he plays for this part....(strum up and down )

e|--0----0------0----0-----0----0---------|
B|--0----0------0----0-----0----0---------|
G|--9----9------9----9-----6----4---------|
D|--x----x------x-----x-----x----x---------|
A|--7----7h9---7----7-----4----2---------|
E|---------------------9---------------------|


and then : A E A E
A B A B A B

for the last 4 ABs he plays: x4222x x6444x

Chorus:
E A F#m (3) A

hope it helps...